ISO-10303-21;
HEADER;
FILE_DESCRIPTION (( 'STEP AP214' ),
    '1' );
FILE_NAME ('107678.STEP',
    '2019-06-06T21:15:53',
    ( '' ),
    ( '' ),
    'SwSTEP 2.0',
    'SolidWorks 2017',
    '' );
FILE_SCHEMA (( 'AUTOMOTIVE_DESIGN' ));
ENDSEC;

DATA;
#1 = PRESENTATION_LAYER_ASSIGNMENT (  '', '', ( #185 ) ) ;
#2 =( CONVERSION_BASED_UNIT ( 'INCH', #116 ) LENGTH_UNIT ( ) NAMED_UNIT ( #86 ) );
#3 = VECTOR ( 'NONE', #125, 39.37007874015748100 ) ;
#4 = VECTOR ( 'NONE', #201, 39.37007874015748100 ) ;
#5 = SHAPE_DEFINITION_REPRESENTATION ( #37, #207 ) ;
#6 = DIRECTION ( 'NONE',  ( 0.0000000000000000000, 0.0000000000000000000, -1.000000000000000000 ) ) ;
#7 = VECTOR ( 'NONE', #149, 39.37007874015748100 ) ;
#8 = CARTESIAN_POINT ( 'NONE',  ( -0.7846456699999999600, -1.189999999999999500, 0.005000000000000000100 ) ) ;
#9 = DIRECTION ( 'NONE',  ( -0.0000000000000000000, -1.000000000000000000, -0.0000000000000000000 ) ) ;
#10 = FACE_OUTER_BOUND ( 'NONE', #76, .T. ) ;
#11 =( NAMED_UNIT ( * ) SI_UNIT ( $, .STERADIAN. ) SOLID_ANGLE_UNIT ( ) );
#12 =( NAMED_UNIT ( * ) PLANE_ANGLE_UNIT ( ) SI_UNIT ( $, .RADIAN. ) );
#13 = PRODUCT_DEFINITION ( 'UNKNOWN', '', #156, #146 ) ;
#14 = LINE ( 'NONE', #92, #56 ) ;
#15 = ORIENTED_EDGE ( 'NONE', *, *, #98, .F. ) ;
#16 = AXIS2_PLACEMENT_3D ( 'NONE', #169, #111, #45 ) ;
#17 = DIMENSIONAL_EXPONENTS ( 1.000000000000000000, 0.0000000000000000000, 0.0000000000000000000, 0.0000000000000000000, 0.0000000000000000000, 0.0000000000000000000, 0.0000000000000000000 ) ;
#18 = ADVANCED_FACE ( 'NONE', ( #179 ), #180, .F. ) ;
#19 = ORIENTED_EDGE ( 'NONE', *, *, #69, .F. ) ;
#20 = DIRECTION ( 'NONE',  ( 0.0000000000000000000, 0.0000000000000000000, 1.000000000000000000 ) ) ;
#21 = LINE ( 'NONE', #112, #183 ) ;
#22 = UNCERTAINTY_MEASURE_WITH_UNIT (LENGTH_MEASURE( 1.000000000000000100E-005 ), #191, 'distance_accuracy_value', 'NONE');
#23 = VERTEX_POINT ( 'NONE', #122 ) ;
#24 = DIRECTION ( 'NONE',  ( -1.000000000000000000, 0.0000000000000000000, 0.0000000000000000000 ) ) ;
#25 = LINE ( 'NONE', #123, #147 ) ;
#26 = CARTESIAN_POINT ( 'NONE',  ( -0.7846456699999999600, -1.189999999999999500, 0.005000000000000000100 ) ) ;
#27 = CARTESIAN_POINT ( 'NONE',  ( 0.0000000000000000000, 0.0000000000000000000, 0.0000000000000000000 ) ) ;
#28 = ORIENTED_EDGE ( 'NONE', *, *, #140, .F. ) ;
#29 = DIRECTION ( 'NONE',  ( -1.000000000000000000, 0.0000000000000000000, -0.0000000000000000000 ) ) ;
#30 = CARTESIAN_POINT ( 'NONE',  ( -0.7846456699999999600, 1.190000000000000400, 0.005000000000000000100 ) ) ;
#31 = LENGTH_MEASURE_WITH_UNIT ( LENGTH_MEASURE( 0.02539999999999999900 ), #186 );
#32 = FACE_OUTER_BOUND ( 'NONE', #89, .T. ) ;
#33 = PRODUCT_CONTEXT ( 'NONE', #71, 'mechanical' ) ;
#34 = ADVANCED_FACE ( 'NONE', ( #32 ), #184, .F. ) ;
#35 = EDGE_LOOP ( 'NONE', ( #211, #120, #28, #195 ) ) ;
#36 = UNCERTAINTY_MEASURE_WITH_UNIT (LENGTH_MEASURE( 1.000000000000000100E-005 ), #154, 'distance_accuracy_value', 'NONE');
#37 = PRODUCT_DEFINITION_SHAPE ( 'NONE', 'NONE',  #13 ) ;
#38 = VERTEX_POINT ( 'NONE', #181 ) ;
#39 = PLANE ( 'NONE',  #176 ) ;
#40 = DIRECTION ( 'NONE',  ( -1.000000000000000000, 0.0000000000000000000, -0.0000000000000000000 ) ) ;
#41 = LINE ( 'NONE', #206, #158 ) ;
#42 = CARTESIAN_POINT ( 'NONE',  ( 0.7846456700000001800, -1.189999999999999500, 0.005000000000000000100 ) ) ;
#43 = VERTEX_POINT ( 'NONE', #107 ) ;
#44 = CARTESIAN_POINT ( 'NONE',  ( -0.7846456699999999600, 1.190000000000000400, 0.005000000000000000100 ) ) ;
#45 = DIRECTION ( 'NONE',  ( 0.0000000000000000000, -0.0000000000000000000, 1.000000000000000000 ) ) ;
#46 = LENGTH_MEASURE_WITH_UNIT ( LENGTH_MEASURE( 0.02539999999999999900 ), #83 );
#47 = CARTESIAN_POINT ( 'NONE',  ( -0.7846456699999999600, 1.190000000000000400, 0.0000000000000000000 ) ) ;
#48 = APPLICATION_PROTOCOL_DEFINITION ( 'draft international standard', 'automotive_design', 1998, #52 ) ;
#49 = COLOUR_RGB ( '',0.9607843137254902200, 0.6196078431372549200, 0.7215686274509803800 ) ;
#50 = LINE ( 'NONE', #204, #4 ) ;
#51 = LINE ( 'NONE', #127, #177 ) ;
#52 = APPLICATION_CONTEXT ( 'automotive_design' ) ;
#53 = DIRECTION ( 'NONE',  ( 0.0000000000000000000, -0.0000000000000000000, -1.000000000000000000 ) ) ;
#54 = EDGE_CURVE ( 'NONE', #61, #188, #50, .T. ) ;
#55 = VERTEX_POINT ( 'NONE', #108 ) ;
#56 = VECTOR ( 'NONE', #80, 39.37007874015748100 ) ;
#57 = VECTOR ( 'NONE', #93, 39.37007874015748100 ) ;
#58 = DIRECTION ( 'NONE',  ( 0.0000000000000000000, 1.000000000000000000, 0.0000000000000000000 ) ) ;
#59 = DIRECTION ( 'NONE',  ( -0.0000000000000000000, -0.0000000000000000000, -1.000000000000000000 ) ) ;
#60 = DIRECTION ( 'NONE',  ( -1.000000000000000000, -0.0000000000000000000, -0.0000000000000000000 ) ) ;
#61 = VERTEX_POINT ( 'NONE', #8 ) ;
#62 = PLANE ( 'NONE',  #16 ) ;
#63 = AXIS2_PLACEMENT_3D ( 'NONE', #192, #20, #97 ) ;
#64 = FILL_AREA_STYLE ('',( #102 ) ) ;
#65 = EDGE_CURVE ( 'NONE', #68, #43, #25, .T. ) ;
#66 = ORIENTED_EDGE ( 'NONE', *, *, #151, .T. ) ;
#67 = ADVANCED_FACE ( 'NONE', ( #85 ), #78, .T. ) ;
#68 = VERTEX_POINT ( 'NONE', #44 ) ;
#69 = EDGE_CURVE ( 'NONE', #23, #55, #21, .T. ) ;
#70 =( NAMED_UNIT ( * ) SI_UNIT ( $, .STERADIAN. ) SOLID_ANGLE_UNIT ( ) );
#71 = APPLICATION_CONTEXT ( 'automotive_design' ) ;
#72 = ORIENTED_EDGE ( 'NONE', *, *, #182, .T. ) ;
#73 = AXIS2_PLACEMENT_3D ( 'NONE', #94, #128, #153 ) ;
#74 = ORIENTED_EDGE ( 'NONE', *, *, #77, .F. ) ;
#75 = DIRECTION ( 'NONE',  ( 0.0000000000000000000, 0.0000000000000000000, 1.000000000000000000 ) ) ;
#76 = EDGE_LOOP ( 'NONE', ( #124, #15, #155, #144 ) ) ;
#77 = EDGE_CURVE ( 'NONE', #43, #23, #142, .T. ) ;
#78 = PLANE ( 'NONE',  #157 ) ;
#79 = CLOSED_SHELL ( 'NONE', ( #34, #210, #209, #131, #18, #67 ) ) ;
#80 = DIRECTION ( 'NONE',  ( -0.0000000000000000000, -0.0000000000000000000, -1.000000000000000000 ) ) ;
#81 = CARTESIAN_POINT ( 'NONE',  ( 0.7846456700000001800, 1.190000000000000400, 0.005000000000000000100 ) ) ;
#82 = PRODUCT_RELATED_PRODUCT_CATEGORY ( 'part', '', ( #168 ) ) ;
#83 =( LENGTH_UNIT ( ) NAMED_UNIT ( * ) SI_UNIT ( $, .METRE. ) );
#84 = SURFACE_STYLE_USAGE ( .BOTH. , #150 ) ;
#85 = FACE_OUTER_BOUND ( 'NONE', #148, .T. ) ;
#86 = DIMENSIONAL_EXPONENTS ( 1.000000000000000000, 0.0000000000000000000, 0.0000000000000000000, 0.0000000000000000000, 0.0000000000000000000, 0.0000000000000000000, 0.0000000000000000000 ) ;
#87 = ORIENTED_EDGE ( 'NONE', *, *, #90, .T. ) ;
#88 = SURFACE_STYLE_FILL_AREA ( #64 ) ;
#89 = EDGE_LOOP ( 'NONE', ( #199, #117, #193, #66 ) ) ;
#90 = EDGE_CURVE ( 'NONE', #188, #202, #105, .T. ) ;
#91 = ORIENTED_EDGE ( 'NONE', *, *, #54, .F. ) ;
#92 = CARTESIAN_POINT ( 'NONE',  ( 0.7846456700000001800, -1.189999999999999500, 0.005000000000000000100 ) ) ;
#93 = DIRECTION ( 'NONE',  ( -1.000000000000000000, -0.0000000000000000000, -0.0000000000000000000 ) ) ;
#94 = CARTESIAN_POINT ( 'NONE',  ( -0.7846456699999999600, -1.189999999999999500, 0.005000000000000000100 ) ) ;
#95 = LINE ( 'NONE', #47, #104 ) ;
#96 =( NAMED_UNIT ( * ) PLANE_ANGLE_UNIT ( ) SI_UNIT ( $, .RADIAN. ) );
#97 = DIRECTION ( 'NONE',  ( 1.000000000000000000, 0.0000000000000000000, 0.0000000000000000000 ) ) ;
#98 = EDGE_CURVE ( 'NONE', #61, #23, #109, .T. ) ;
#99 = FACE_OUTER_BOUND ( 'NONE', #126, .T. ) ;
#100 = ORIENTED_EDGE ( 'NONE', *, *, #69, .T. ) ;
#101 = MANIFOLD_SOLID_BREP ( 'Boss-Extrude1', #79 ) ;
#102 = FILL_AREA_STYLE_COLOUR ( '', #49 ) ;
#103 = SURFACE_SIDE_STYLE ('',( #88 ) ) ;
#104 = VECTOR ( 'NONE', #60, 39.37007874015748100 ) ;
#105 = LINE ( 'NONE', #205, #175 ) ;
#106 = ORIENTED_EDGE ( 'NONE', *, *, #140, .T. ) ;
#107 = CARTESIAN_POINT ( 'NONE',  ( -0.7846456699999999600, 1.190000000000000400, 0.0000000000000000000 ) ) ;
#108 = CARTESIAN_POINT ( 'NONE',  ( 0.7846456700000001800, -1.189999999999999500, 0.0000000000000000000 ) ) ;
#109 = LINE ( 'NONE', #26, #141 ) ;
#110 = CARTESIAN_POINT ( 'NONE',  ( 0.7846456700000001800, -1.189999999999999500, 0.005000000000000000100 ) ) ;
#111 = DIRECTION ( 'NONE',  ( 0.0000000000000000000, 1.000000000000000000, 0.0000000000000000000 ) ) ;
#112 = CARTESIAN_POINT ( 'NONE',  ( -0.7846456699999999600, -1.189999999999999500, 0.0000000000000000000 ) ) ;
#113 = MECHANICAL_DESIGN_GEOMETRIC_PRESENTATION_REPRESENTATION (  '', ( #185 ), #121 ) ;
#114 = EDGE_CURVE ( 'NONE', #38, #43, #95, .T. ) ;
#115 = CARTESIAN_POINT ( 'NONE',  ( -0.7846456699999999600, -1.189999999999999500, 0.0000000000000000000 ) ) ;
#116 = LENGTH_MEASURE_WITH_UNIT ( LENGTH_MEASURE( 0.02539999999999999900 ), #159 );
#117 = ORIENTED_EDGE ( 'NONE', *, *, #200, .F. ) ;
#118 = ORIENTED_EDGE ( 'NONE', *, *, #54, .T. ) ;
#119 = DIRECTION ( 'NONE',  ( 0.0000000000000000000, -1.000000000000000000, 0.0000000000000000000 ) ) ;
#120 = ORIENTED_EDGE ( 'NONE', *, *, #65, .F. ) ;
#121 =( GEOMETRIC_REPRESENTATION_CONTEXT ( 3 ) GLOBAL_UNCERTAINTY_ASSIGNED_CONTEXT ( ( #165 ) ) GLOBAL_UNIT_ASSIGNED_CONTEXT ( ( #2, #12, #70 ) ) REPRESENTATION_CONTEXT ( 'NONE', 'WORKASPACE' ) );
#122 = CARTESIAN_POINT ( 'NONE',  ( -0.7846456699999999600, -1.189999999999999500, 0.0000000000000000000 ) ) ;
#123 = CARTESIAN_POINT ( 'NONE',  ( -0.7846456699999999600, 1.190000000000000400, 0.005000000000000000100 ) ) ;
#124 = ORIENTED_EDGE ( 'NONE', *, *, #77, .T. ) ;
#125 = DIRECTION ( 'NONE',  ( 0.0000000000000000000, 1.000000000000000000, 0.0000000000000000000 ) ) ;
#126 = EDGE_LOOP ( 'NONE', ( #100, #178, #91, #163 ) ) ;
#127 = CARTESIAN_POINT ( 'NONE',  ( -0.7846456699999999600, -1.189999999999999500, 0.005000000000000000100 ) ) ;
#128 = DIRECTION ( 'NONE',  ( 1.000000000000000000, 0.0000000000000000000, 0.0000000000000000000 ) ) ;
#129 = FILL_AREA_STYLE ('',( #167 ) ) ;
#130 = AXIS2_PLACEMENT_3D ( 'NONE', #110, #24, #75 ) ;
#131 = ADVANCED_FACE ( 'NONE', ( #99 ), #62, .F. ) ;
#132 = LINE ( 'NONE', #137, #57 ) ;
#133 = DIMENSIONAL_EXPONENTS ( 1.000000000000000000, 0.0000000000000000000, 0.0000000000000000000, 0.0000000000000000000, 0.0000000000000000000, 0.0000000000000000000, 0.0000000000000000000 ) ;
#134 = APPLICATION_PROTOCOL_DEFINITION ( 'draft international standard', 'automotive_design', 1998, #71 ) ;
#135 = EDGE_CURVE ( 'NONE', #55, #38, #171, .T. ) ;
#136 = ORIENTED_EDGE ( 'NONE', *, *, #135, .F. ) ;
#137 = CARTESIAN_POINT ( 'NONE',  ( -0.7846456699999999600, 1.190000000000000400, 0.005000000000000000100 ) ) ;
#138 = DIRECTION ( 'NONE',  ( 0.0000000000000000000, 0.0000000000000000000, -1.000000000000000000 ) ) ;
#139 = PLANE ( 'NONE',  #73 ) ;
#140 = EDGE_CURVE ( 'NONE', #202, #68, #132, .T. ) ;
#141 = VECTOR ( 'NONE', #59, 39.37007874015748100 ) ;
#142 = LINE ( 'NONE', #115, #7 ) ;
#143 = AXIS2_PLACEMENT_3D ( 'NONE', #203, #6, #40 ) ;
#144 = ORIENTED_EDGE ( 'NONE', *, *, #65, .T. ) ;
#145 = SURFACE_STYLE_FILL_AREA ( #129 ) ;
#146 = PRODUCT_DEFINITION_CONTEXT ( 'detailed design', #52, 'design' ) ;
#147 = VECTOR ( 'NONE', #190, 39.37007874015748100 ) ;
#148 = EDGE_LOOP ( 'NONE', ( #136, #19, #74, #152 ) ) ;
#149 = DIRECTION ( 'NONE',  ( -0.0000000000000000000, -1.000000000000000000, -0.0000000000000000000 ) ) ;
#150 = SURFACE_SIDE_STYLE ('',( #145 ) ) ;
#151 = EDGE_CURVE ( 'NONE', #188, #55, #14, .T. ) ;
#152 = ORIENTED_EDGE ( 'NONE', *, *, #114, .F. ) ;
#153 = DIRECTION ( 'NONE',  ( 0.0000000000000000000, 0.0000000000000000000, -1.000000000000000000 ) ) ;
#154 =( CONVERSION_BASED_UNIT ( 'INCH', #46 ) LENGTH_UNIT ( ) NAMED_UNIT ( #17 ) );
#155 = ORIENTED_EDGE ( 'NONE', *, *, #182, .F. ) ;
#156 = PRODUCT_DEFINITION_FORMATION_WITH_SPECIFIED_SOURCE ( 'ANY', '', #168, .NOT_KNOWN. ) ;
#157 = AXIS2_PLACEMENT_3D ( 'NONE', #27, #138, #29 ) ;
#158 = VECTOR ( 'NONE', #170, 39.37007874015748100 ) ;
#159 =( LENGTH_UNIT ( ) NAMED_UNIT ( * ) SI_UNIT ( $, .METRE. ) );
#160 = EDGE_LOOP ( 'NONE', ( #87, #106, #72, #118 ) ) ;
#161 =( NAMED_UNIT ( * ) PLANE_ANGLE_UNIT ( ) SI_UNIT ( $, .RADIAN. ) );
#162 = PRESENTATION_STYLE_ASSIGNMENT (( #173 ) ) ;
#163 = ORIENTED_EDGE ( 'NONE', *, *, #98, .T. ) ;
#164 = STYLED_ITEM ( 'NONE', ( #174 ), #101 ) ;
#165 = UNCERTAINTY_MEASURE_WITH_UNIT (LENGTH_MEASURE( 1.000000000000000100E-005 ), #2, 'distance_accuracy_value', 'NONE');
#166 =( GEOMETRIC_REPRESENTATION_CONTEXT ( 3 ) GLOBAL_UNCERTAINTY_ASSIGNED_CONTEXT ( ( #36 ) ) GLOBAL_UNIT_ASSIGNED_CONTEXT ( ( #154, #161, #196 ) ) REPRESENTATION_CONTEXT ( 'NONE', 'WORKASPACE' ) );
#167 = FILL_AREA_STYLE_COLOUR ( '', #198 ) ;
#168 = PRODUCT ( '107678', '107678', '', ( #33 ) ) ;
#169 = CARTESIAN_POINT ( 'NONE',  ( -0.7846456699999999600, -1.189999999999999500, 0.005000000000000000100 ) ) ;
#170 = DIRECTION ( 'NONE',  ( -0.0000000000000000000, -0.0000000000000000000, -1.000000000000000000 ) ) ;
#171 = LINE ( 'NONE', #172, #3 ) ;
#172 = CARTESIAN_POINT ( 'NONE',  ( 0.7846456700000001800, -1.189999999999999500, 0.0000000000000000000 ) ) ;
#173 = SURFACE_STYLE_USAGE ( .BOTH. , #103 ) ;
#174 = PRESENTATION_STYLE_ASSIGNMENT (( #84 ) ) ;
#175 = VECTOR ( 'NONE', #58, 39.37007874015748100 ) ;
#176 = AXIS2_PLACEMENT_3D ( 'NONE', #30, #119, #53 ) ;
#177 = VECTOR ( 'NONE', #9, 39.37007874015748100 ) ;
#178 = ORIENTED_EDGE ( 'NONE', *, *, #151, .F. ) ;
#179 = FACE_OUTER_BOUND ( 'NONE', #160, .T. ) ;
#180 = PLANE ( 'NONE',  #143 ) ;
#181 = CARTESIAN_POINT ( 'NONE',  ( 0.7846456700000001800, 1.190000000000000400, 0.0000000000000000000 ) ) ;
#182 = EDGE_CURVE ( 'NONE', #68, #61, #51, .T. ) ;
#183 = VECTOR ( 'NONE', #208, 39.37007874015748100 ) ;
#184 = PLANE ( 'NONE',  #130 ) ;
#185 = STYLED_ITEM ( 'NONE', ( #162 ), #207 ) ;
#186 =( LENGTH_UNIT ( ) NAMED_UNIT ( * ) SI_UNIT ( $, .METRE. ) );
#187 = MECHANICAL_DESIGN_GEOMETRIC_PRESENTATION_REPRESENTATION (  '', ( #164 ), #189 ) ;
#188 = VERTEX_POINT ( 'NONE', #42 ) ;
#189 =( GEOMETRIC_REPRESENTATION_CONTEXT ( 3 ) GLOBAL_UNCERTAINTY_ASSIGNED_CONTEXT ( ( #22 ) ) GLOBAL_UNIT_ASSIGNED_CONTEXT ( ( #191, #96, #11 ) ) REPRESENTATION_CONTEXT ( 'NONE', 'WORKASPACE' ) );
#190 = DIRECTION ( 'NONE',  ( -0.0000000000000000000, -0.0000000000000000000, -1.000000000000000000 ) ) ;
#191 =( CONVERSION_BASED_UNIT ( 'INCH', #31 ) LENGTH_UNIT ( ) NAMED_UNIT ( #133 ) );
#192 = CARTESIAN_POINT ( 'NONE',  ( 0.0000000000000000000, 0.0000000000000000000, 0.0000000000000000000 ) ) ;
#193 = ORIENTED_EDGE ( 'NONE', *, *, #90, .F. ) ;
#194 = PRESENTATION_LAYER_ASSIGNMENT (  '', '', ( #164 ) ) ;
#195 = ORIENTED_EDGE ( 'NONE', *, *, #200, .T. ) ;
#196 =( NAMED_UNIT ( * ) SI_UNIT ( $, .STERADIAN. ) SOLID_ANGLE_UNIT ( ) );
#197 = FACE_OUTER_BOUND ( 'NONE', #35, .T. ) ;
#198 = COLOUR_RGB ( '',0.9607843137254902200, 0.6196078431372549200, 0.7215686274509803800 ) ;
#199 = ORIENTED_EDGE ( 'NONE', *, *, #135, .T. ) ;
#200 = EDGE_CURVE ( 'NONE', #202, #38, #41, .T. ) ;
#201 = DIRECTION ( 'NONE',  ( 1.000000000000000000, 0.0000000000000000000, 0.0000000000000000000 ) ) ;
#202 = VERTEX_POINT ( 'NONE', #81 ) ;
#203 = CARTESIAN_POINT ( 'NONE',  ( 0.0000000000000000000, 0.0000000000000000000, 0.005000000000000000100 ) ) ;
#204 = CARTESIAN_POINT ( 'NONE',  ( -0.7846456699999999600, -1.189999999999999500, 0.005000000000000000100 ) ) ;
#205 = CARTESIAN_POINT ( 'NONE',  ( 0.7846456700000001800, -1.189999999999999500, 0.005000000000000000100 ) ) ;
#206 = CARTESIAN_POINT ( 'NONE',  ( 0.7846456700000001800, 1.190000000000000400, 0.005000000000000000100 ) ) ;
#207 = ADVANCED_BREP_SHAPE_REPRESENTATION ( '107678', ( #101, #63 ), #166 ) ;
#208 = DIRECTION ( 'NONE',  ( 1.000000000000000000, 0.0000000000000000000, 0.0000000000000000000 ) ) ;
#209 = ADVANCED_FACE ( 'NONE', ( #10 ), #139, .F. ) ;
#210 = ADVANCED_FACE ( 'NONE', ( #197 ), #39, .F. ) ;
#211 = ORIENTED_EDGE ( 'NONE', *, *, #114, .T. ) ;
ENDSEC;
END-ISO-10303-21;
