ISO-10303-21;
HEADER;
FILE_DESCRIPTION (( 'STEP AP214' ),
    '1' );
FILE_NAME ('HSP-7.STEP',
    '2015-08-24T22:43:24',
    ( 'test' ),
    ( '' ),
    'SwSTEP 2.0',
    'SolidWorks 2015',
    '' );
FILE_SCHEMA (( 'AUTOMOTIVE_DESIGN' ));
ENDSEC;

DATA;
#1 = ORIENTED_EDGE ( 'NONE', *, *, #42, .F. ) ;
#2 = EDGE_CURVE ( 'NONE', #195, #107, #138, .T. ) ;
#3 = EDGE_CURVE ( 'NONE', #208, #72, #41, .T. ) ;
#4 = FACE_OUTER_BOUND ( 'NONE', #90, .T. ) ;
#5 = ORIENTED_EDGE ( 'NONE', *, *, #191, .T. ) ;
#6 = CARTESIAN_POINT ( 'NONE',  ( -0.3346456692913393800, -0.7750000000000030200, 0.003000000000008136300 ) ) ;
#7 = DIRECTION ( 'NONE',  ( 6.059001456789058400E-016, 1.598458980453054400E-017, 1.000000000000000000 ) ) ;
#8 = COLOUR_RGB ( '',0.9607843137254902200, 0.6196078431372549200, 0.7215686274509803800 ) ;
#9 = CARTESIAN_POINT ( 'NONE',  ( -0.3346456692913400400, 0.7750000000000023500, 0.003000000000007999700 ) ) ;
#10 = PRODUCT ( 'HSP-7', 'HSP-7', '', ( #176 ) ) ;
#11 = DIRECTION ( 'NONE',  ( -1.000000000000000000, 2.428612866367527500E-016, -5.503889944476452500E-016 ) ) ;
#12 =( NAMED_UNIT ( * ) PLANE_ANGLE_UNIT ( ) SI_UNIT ( $, .RADIAN. ) );
#13 = ORIENTED_EDGE ( 'NONE', *, *, #102, .F. ) ;
#14 =( CONVERSION_BASED_UNIT ( 'INCH', #70 ) LENGTH_UNIT ( ) NAMED_UNIT ( #58 ) );
#15 =( NAMED_UNIT ( * ) PLANE_ANGLE_UNIT ( ) SI_UNIT ( $, .RADIAN. ) );
#16 =( GEOMETRIC_REPRESENTATION_CONTEXT ( 3 ) GLOBAL_UNCERTAINTY_ASSIGNED_CONTEXT ( ( #66 ) ) GLOBAL_UNIT_ASSIGNED_CONTEXT ( ( #14, #142, #68 ) ) REPRESENTATION_CONTEXT ( 'NONE', 'WORKASPACE' ) );
#17 = PRODUCT_DEFINITION ( 'UNKNOWN', '', #34, #44 ) ;
#18 = MECHANICAL_DESIGN_GEOMETRIC_PRESENTATION_REPRESENTATION (  '', ( #151 ), #129 ) ;
#19 = CARTESIAN_POINT ( 'NONE',  ( -0.3346456692913392100, -0.7750000000000030200, 7.717470582101543000E-015 ) ) ;
#20 = EDGE_CURVE ( 'NONE', #208, #56, #147, .T. ) ;
#21 = EDGE_LOOP ( 'NONE', ( #13, #145, #119, #1 ) ) ;
#22 = CARTESIAN_POINT ( 'NONE',  ( 0.3346456692913399900, 0.7750000000000023500, 0.003000000000008136300 ) ) ;
#23 = PLANE ( 'NONE',  #130 ) ;
#24 = CARTESIAN_POINT ( 'NONE',  ( 3.414809992080603300E-017, -4.268512490100418800E-016, 8.058951581309577200E-015 ) ) ;
#25 = CARTESIAN_POINT ( 'NONE',  ( -0.3346456692913392100, -0.7750000000000030200, 7.717470582101543000E-015 ) ) ;
#26 = VECTOR ( 'NONE', #99, 39.37007874015748100 ) ;
#27 = LENGTH_MEASURE_WITH_UNIT ( LENGTH_MEASURE( 0.02539999999999999900 ), #69 );
#28 = EDGE_LOOP ( 'NONE', ( #75, #186, #148, #125 ) ) ;
#29 = SURFACE_SIDE_STYLE ('',( #166 ) ) ;
#30 = VECTOR ( 'NONE', #84, 39.37007874015748100 ) ;
#31 = VECTOR ( 'NONE', #43, 39.37007874015748100 ) ;
#32 = AXIS2_PLACEMENT_3D ( 'NONE', #24, #187, #11 ) ;
#33 = ORIENTED_EDGE ( 'NONE', *, *, #177, .F. ) ;
#34 = PRODUCT_DEFINITION_FORMATION_WITH_SPECIFIED_SOURCE ( 'ANY', '', #10, .NOT_KNOWN. ) ;
#35 = ADVANCED_FACE ( 'NONE', ( #4 ), #141, .F. ) ;
#36 = ORIENTED_EDGE ( 'NONE', *, *, #20, .F. ) ;
#37 = VECTOR ( 'NONE', #108, 39.37007874015748100 ) ;
#38 = ADVANCED_FACE ( 'NONE', ( #190 ), #200, .F. ) ;
#39 = CARTESIAN_POINT ( 'NONE',  ( -0.3346456692913400400, 0.7750000000000023500, 0.003000000000007999700 ) ) ;
#40 = CARTESIAN_POINT ( 'NONE',  ( -0.3346456692913393800, -0.7750000000000030200, 0.003000000000008136300 ) ) ;
#41 = LINE ( 'NONE', #39, #171 ) ;
#42 = EDGE_CURVE ( 'NONE', #120, #72, #51, .T. ) ;
#43 = DIRECTION ( 'NONE',  ( -1.000000000000000000, 2.428612866367527500E-016, -5.503889944476452500E-016 ) ) ;
#44 = PRODUCT_DEFINITION_CONTEXT ( 'detailed design', #88, 'design' ) ;
#45 = VECTOR ( 'NONE', #121, 39.37007874015748100 ) ;
#46 = DIRECTION ( 'NONE',  ( -1.000000000000000000, 2.428612866367527500E-016, -5.503889944476452500E-016 ) ) ;
#47 = FILL_AREA_STYLE_COLOUR ( '', #203 ) ;
#48 =( NAMED_UNIT ( * ) SI_UNIT ( $, .STERADIAN. ) SOLID_ANGLE_UNIT ( ) );
#49 = VERTEX_POINT ( 'NONE', #22 ) ;
#50 = DIRECTION ( 'NONE',  ( 0.0000000000000000000, 0.0000000000000000000, 1.000000000000000000 ) ) ;
#51 = LINE ( 'NONE', #137, #31 ) ;
#52 = SHAPE_DEFINITION_REPRESENTATION ( #157, #113 ) ;
#53 = FACE_OUTER_BOUND ( 'NONE', #21, .T. ) ;
#54 = VECTOR ( 'NONE', #112, 39.37007874015748100 ) ;
#55 = AXIS2_PLACEMENT_3D ( 'NONE', #83, #168, #201 ) ;
#56 = VERTEX_POINT ( 'NONE', #60 ) ;
#57 = CARTESIAN_POINT ( 'NONE',  ( 0.3346456692913406000, -0.7750000000000030200, 0.003000000000008136300 ) ) ;
#58 = DIMENSIONAL_EXPONENTS ( 1.000000000000000000, 0.0000000000000000000, 0.0000000000000000000, 0.0000000000000000000, 0.0000000000000000000, 0.0000000000000000000, 0.0000000000000000000 ) ;
#59 = PLANE ( 'NONE',  #55 ) ;
#60 = CARTESIAN_POINT ( 'NONE',  ( -0.3346456692913393800, -0.7750000000000030200, 0.003000000000008136300 ) ) ;
#61 = CARTESIAN_POINT ( 'NONE',  ( 0.3346456692913399900, 0.7750000000000022400, 8.400432580517609700E-015 ) ) ;
#62 = DIRECTION ( 'NONE',  ( -6.059001456789058400E-016, -1.598458980453054400E-017, -1.000000000000000000 ) ) ;
#63 =( GEOMETRIC_REPRESENTATION_CONTEXT ( 3 ) GLOBAL_UNCERTAINTY_ASSIGNED_CONTEXT ( ( #202 ) ) GLOBAL_UNIT_ASSIGNED_CONTEXT ( ( #154, #15, #143 ) ) REPRESENTATION_CONTEXT ( 'NONE', 'WORKASPACE' ) );
#64 = CARTESIAN_POINT ( 'NONE',  ( -0.3346456692913393800, -0.7750000000000030200, 0.003000000000008136300 ) ) ;
#65 = CARTESIAN_POINT ( 'NONE',  ( 0.3346456692913406000, -0.7750000000000030200, 0.003000000000008136300 ) ) ;
#66 = UNCERTAINTY_MEASURE_WITH_UNIT (LENGTH_MEASURE( 1.000000000000000100E-005 ), #14, 'distance_accuracy_value', 'NONE');
#67 = ADVANCED_FACE ( 'NONE', ( #93 ), #59, .F. ) ;
#68 =( NAMED_UNIT ( * ) SI_UNIT ( $, .STERADIAN. ) SOLID_ANGLE_UNIT ( ) );
#69 =( LENGTH_UNIT ( ) NAMED_UNIT ( * ) SI_UNIT ( $, .METRE. ) );
#70 = LENGTH_MEASURE_WITH_UNIT ( LENGTH_MEASURE( 0.02539999999999999900 ), #128 );
#71 = DIRECTION ( 'NONE',  ( 1.000000000000000000, 0.0000000000000000000, 0.0000000000000000000 ) ) ;
#72 = VERTEX_POINT ( 'NONE', #122 ) ;
#73 = LINE ( 'NONE', #172, #146 ) ;
#74 = CLOSED_SHELL ( 'NONE', ( #38, #35, #162, #77, #67, #163 ) ) ;
#75 = ORIENTED_EDGE ( 'NONE', *, *, #102, .T. ) ;
#76 = LENGTH_MEASURE_WITH_UNIT ( LENGTH_MEASURE( 0.02539999999999999900 ), #207 );
#77 = ADVANCED_FACE ( 'NONE', ( #149 ), #23, .F. ) ;
#78 = PRODUCT_RELATED_PRODUCT_CATEGORY ( 'part', '', ( #10 ) ) ;
#79 = ORIENTED_EDGE ( 'NONE', *, *, #181, .F. ) ;
#80 = LINE ( 'NONE', #9, #101 ) ;
#81 = LINE ( 'NONE', #97, #194 ) ;
#82 = DIRECTION ( 'NONE',  ( -6.059001456789058400E-016, -1.598458980453054400E-017, -1.000000000000000000 ) ) ;
#83 = CARTESIAN_POINT ( 'NONE',  ( 9.850331685705390100E-019, -4.268449286040521500E-016, 0.003000000000008136300 ) ) ;
#84 = DIRECTION ( 'NONE',  ( -2.428612866367528000E-016, 1.000000000000000000, 1.598458980453043300E-017 ) ) ;
#85 = CARTESIAN_POINT ( 'NONE',  ( -0.3346456692913392100, -0.7750000000000030200, 7.717470582101543000E-015 ) ) ;
#86 = ORIENTED_EDGE ( 'NONE', *, *, #175, .T. ) ;
#87 = APPLICATION_PROTOCOL_DEFINITION ( 'draft international standard', 'automotive_design', 1998, #100 ) ;
#88 = APPLICATION_CONTEXT ( 'automotive_design' ) ;
#89 = LINE ( 'NONE', #65, #26 ) ;
#90 = EDGE_LOOP ( 'NONE', ( #164, #192, #116, #91 ) ) ;
#91 = ORIENTED_EDGE ( 'NONE', *, *, #105, .T. ) ;
#92 = SURFACE_STYLE_FILL_AREA ( #206 ) ;
#93 = FACE_OUTER_BOUND ( 'NONE', #110, .T. ) ;
#94 = VERTEX_POINT ( 'NONE', #109 ) ;
#95 = CARTESIAN_POINT ( 'NONE',  ( -0.3346456692913393800, -0.7750000000000030200, 0.003000000000008136300 ) ) ;
#96 = VECTOR ( 'NONE', #198, 39.37007874015748100 ) ;
#97 = CARTESIAN_POINT ( 'NONE',  ( 0.3346456692913399900, 0.7750000000000023500, 0.003000000000008136300 ) ) ;
#98 = SURFACE_STYLE_USAGE ( .BOTH. , #188 ) ;
#99 = DIRECTION ( 'NONE',  ( -2.428612866367528000E-016, 1.000000000000000000, 1.598458980453043300E-017 ) ) ;
#100 = APPLICATION_CONTEXT ( 'automotive_design' ) ;
#101 = VECTOR ( 'NONE', #46, 39.37007874015748100 ) ;
#102 = EDGE_CURVE ( 'NONE', #107, #120, #178, .T. ) ;
#103 = DIRECTION ( 'NONE',  ( 2.428612866367528500E-016, -1.000000000000000000, 1.598458980453039600E-017 ) ) ;
#104 = AXIS2_PLACEMENT_3D ( 'NONE', #6, #124, #62 ) ;
#105 = EDGE_CURVE ( 'NONE', #49, #120, #81, .T. ) ;
#106 = DIMENSIONAL_EXPONENTS ( 1.000000000000000000, 0.0000000000000000000, 0.0000000000000000000, 0.0000000000000000000, 0.0000000000000000000, 0.0000000000000000000, 0.0000000000000000000 ) ;
#107 = VERTEX_POINT ( 'NONE', #150 ) ;
#108 = DIRECTION ( 'NONE',  ( 1.000000000000000000, -2.428612866367527500E-016, 5.503889944476452500E-016 ) ) ;
#109 = CARTESIAN_POINT ( 'NONE',  ( 0.3346456692913406000, -0.7750000000000030200, 0.003000000000008136300 ) ) ;
#110 = EDGE_LOOP ( 'NONE', ( #5, #117, #127, #132 ) ) ;
#111 = CARTESIAN_POINT ( 'NONE',  ( 0.3346456692913406000, -0.7750000000000030200, 8.297988280755199500E-015 ) ) ;
#112 = DIRECTION ( 'NONE',  ( -6.059001456789058400E-016, -1.598458980453054400E-017, -1.000000000000000000 ) ) ;
#113 = ADVANCED_BREP_SHAPE_REPRESENTATION ( 'HSP-7', ( #179, #170 ), #16 ) ;
#114 =( CONVERSION_BASED_UNIT ( 'INCH', #76 ) LENGTH_UNIT ( ) NAMED_UNIT ( #106 ) );
#115 = CARTESIAN_POINT ( 'NONE',  ( 0.0000000000000000000, 0.0000000000000000000, 0.0000000000000000000 ) ) ;
#116 = ORIENTED_EDGE ( 'NONE', *, *, #160, .F. ) ;
#117 = ORIENTED_EDGE ( 'NONE', *, *, #160, .T. ) ;
#118 = LINE ( 'NONE', #25, #184 ) ;
#119 = ORIENTED_EDGE ( 'NONE', *, *, #175, .F. ) ;
#120 = VERTEX_POINT ( 'NONE', #61 ) ;
#121 = DIRECTION ( 'NONE',  ( 2.428612866367528000E-016, -1.000000000000000000, -1.598458980453043300E-017 ) ) ;
#122 = CARTESIAN_POINT ( 'NONE',  ( -0.3346456692913399300, 0.7750000000000022400, 8.093099681230379000E-015 ) ) ;
#123 = DIRECTION ( 'NONE',  ( -2.428612866367528500E-016, 1.000000000000000000, -1.598458980453039600E-017 ) ) ;
#124 = DIRECTION ( 'NONE',  ( 1.000000000000000000, -2.428612866367528000E-016, -6.059001456789058400E-016 ) ) ;
#125 = ORIENTED_EDGE ( 'NONE', *, *, #159, .T. ) ;
#126 = DIRECTION ( 'NONE',  ( 2.428612866367528000E-016, -1.000000000000000000, -1.598458980453043300E-017 ) ) ;
#127 = ORIENTED_EDGE ( 'NONE', *, *, #20, .T. ) ;
#128 =( LENGTH_UNIT ( ) NAMED_UNIT ( * ) SI_UNIT ( $, .METRE. ) );
#129 =( GEOMETRIC_REPRESENTATION_CONTEXT ( 3 ) GLOBAL_UNCERTAINTY_ASSIGNED_CONTEXT ( ( #210 ) ) GLOBAL_UNIT_ASSIGNED_CONTEXT ( ( #114, #12, #48 ) ) REPRESENTATION_CONTEXT ( 'NONE', 'WORKASPACE' ) );
#130 = AXIS2_PLACEMENT_3D ( 'NONE', #95, #123, #139 ) ;
#131 = SURFACE_STYLE_USAGE ( .BOTH. , #29 ) ;
#132 = ORIENTED_EDGE ( 'NONE', *, *, #181, .T. ) ;
#133 = ORIENTED_EDGE ( 'NONE', *, *, #2, .T. ) ;
#134 = LINE ( 'NONE', #57, #96 ) ;
#135 = CARTESIAN_POINT ( 'NONE',  ( -0.3346456692913400400, 0.7750000000000023500, 0.003000000000007999700 ) ) ;
#136 = DIRECTION ( 'NONE',  ( -1.000000000000000000, 2.428612866367528000E-016, 6.059001456789058400E-016 ) ) ;
#137 = CARTESIAN_POINT ( 'NONE',  ( -0.3346456692913399300, 0.7750000000000022400, 8.093099681230379000E-015 ) ) ;
#138 = LINE ( 'NONE', #19, #37 ) ;
#139 = DIRECTION ( 'NONE',  ( 6.059001456789058400E-016, 1.598458980453054400E-017, 1.000000000000000000 ) ) ;
#140 = PLANE ( 'NONE',  #104 ) ;
#141 = PLANE ( 'NONE',  #211 ) ;
#142 =( NAMED_UNIT ( * ) PLANE_ANGLE_UNIT ( ) SI_UNIT ( $, .RADIAN. ) );
#143 =( NAMED_UNIT ( * ) SI_UNIT ( $, .STERADIAN. ) SOLID_ANGLE_UNIT ( ) );
#144 = AXIS2_PLACEMENT_3D ( 'NONE', #185, #136, #7 ) ;
#145 = ORIENTED_EDGE ( 'NONE', *, *, #2, .F. ) ;
#146 = VECTOR ( 'NONE', #189, 39.37007874015748100 ) ;
#147 = LINE ( 'NONE', #40, #45 ) ;
#148 = ORIENTED_EDGE ( 'NONE', *, *, #191, .F. ) ;
#149 = FACE_OUTER_BOUND ( 'NONE', #165, .T. ) ;
#150 = CARTESIAN_POINT ( 'NONE',  ( 0.3346456692913406000, -0.7750000000000030200, 8.297988280755199500E-015 ) ) ;
#151 = STYLED_ITEM ( 'NONE', ( #158 ), #179 ) ;
#152 = CARTESIAN_POINT ( 'NONE',  ( -0.3346456692913400400, 0.7750000000000023500, 0.003000000000007999700 ) ) ;
#153 = ORIENTED_EDGE ( 'NONE', *, *, #159, .F. ) ;
#154 =( CONVERSION_BASED_UNIT ( 'INCH', #27 ) LENGTH_UNIT ( ) NAMED_UNIT ( #193 ) );
#155 = LINE ( 'NONE', #64, #54 ) ;
#156 = APPLICATION_PROTOCOL_DEFINITION ( 'draft international standard', 'automotive_design', 1998, #88 ) ;
#157 = PRODUCT_DEFINITION_SHAPE ( 'NONE', 'NONE',  #17 ) ;
#158 = PRESENTATION_STYLE_ASSIGNMENT (( #98 ) ) ;
#159 = EDGE_CURVE ( 'NONE', #94, #107, #134, .T. ) ;
#160 = EDGE_CURVE ( 'NONE', #49, #208, #80, .T. ) ;
#161 = EDGE_LOOP ( 'NONE', ( #86, #33, #36, #197 ) ) ;
#162 = ADVANCED_FACE ( 'NONE', ( #199 ), #140, .F. ) ;
#163 = ADVANCED_FACE ( 'NONE', ( #53 ), #204, .T. ) ;
#164 = ORIENTED_EDGE ( 'NONE', *, *, #42, .T. ) ;
#165 = EDGE_LOOP ( 'NONE', ( #133, #153, #79, #173 ) ) ;
#166 = SURFACE_STYLE_FILL_AREA ( #209 ) ;
#167 = MECHANICAL_DESIGN_GEOMETRIC_PRESENTATION_REPRESENTATION (  '', ( #180 ), #63 ) ;
#168 = DIRECTION ( 'NONE',  ( 5.503889944476452500E-016, -1.598458980453082400E-017, -1.000000000000000000 ) ) ;
#169 = DIRECTION ( 'NONE',  ( -6.059001456789058400E-016, -1.598458980453054400E-017, -1.000000000000000000 ) ) ;
#170 = AXIS2_PLACEMENT_3D ( 'NONE', #115, #50, #71 ) ;
#171 = VECTOR ( 'NONE', #196, 39.37007874015748100 ) ;
#172 = CARTESIAN_POINT ( 'NONE',  ( -0.3346456692913393800, -0.7750000000000030200, 0.003000000000008136300 ) ) ;
#173 = ORIENTED_EDGE ( 'NONE', *, *, #177, .T. ) ;
#174 = FILL_AREA_STYLE_COLOUR ( '', #8 ) ;
#175 = EDGE_CURVE ( 'NONE', #72, #195, #118, .T. ) ;
#176 = PRODUCT_CONTEXT ( 'NONE', #100, 'mechanical' ) ;
#177 = EDGE_CURVE ( 'NONE', #56, #195, #155, .T. ) ;
#178 = LINE ( 'NONE', #111, #30 ) ;
#179 = MANIFOLD_SOLID_BREP ( 'Boss-Extrude1', #74 ) ;
#180 = STYLED_ITEM ( 'NONE', ( #205 ), #113 ) ;
#181 = EDGE_CURVE ( 'NONE', #56, #94, #73, .T. ) ;
#182 = PRESENTATION_LAYER_ASSIGNMENT (  '', '', ( #151 ) ) ;
#183 = PRESENTATION_LAYER_ASSIGNMENT (  '', '', ( #180 ) ) ;
#184 = VECTOR ( 'NONE', #126, 39.37007874015748100 ) ;
#185 = CARTESIAN_POINT ( 'NONE',  ( 0.3346456692913406000, -0.7750000000000030200, 0.003000000000008136300 ) ) ;
#186 = ORIENTED_EDGE ( 'NONE', *, *, #105, .F. ) ;
#187 = DIRECTION ( 'NONE',  ( 5.503889944476452500E-016, -1.598458980453082400E-017, -1.000000000000000000 ) ) ;
#188 = SURFACE_SIDE_STYLE ('',( #92 ) ) ;
#189 = DIRECTION ( 'NONE',  ( 1.000000000000000000, -2.428612866367527500E-016, 5.503889944476452500E-016 ) ) ;
#190 = FACE_OUTER_BOUND ( 'NONE', #28, .T. ) ;
#191 = EDGE_CURVE ( 'NONE', #94, #49, #89, .T. ) ;
#192 = ORIENTED_EDGE ( 'NONE', *, *, #3, .F. ) ;
#193 = DIMENSIONAL_EXPONENTS ( 1.000000000000000000, 0.0000000000000000000, 0.0000000000000000000, 0.0000000000000000000, 0.0000000000000000000, 0.0000000000000000000, 0.0000000000000000000 ) ;
#194 = VECTOR ( 'NONE', #169, 39.37007874015748100 ) ;
#195 = VERTEX_POINT ( 'NONE', #85 ) ;
#196 = DIRECTION ( 'NONE',  ( -6.059001456789058400E-016, -1.598458980453054400E-017, -1.000000000000000000 ) ) ;
#197 = ORIENTED_EDGE ( 'NONE', *, *, #3, .T. ) ;
#198 = DIRECTION ( 'NONE',  ( -6.059001456789058400E-016, -1.598458980453054400E-017, -1.000000000000000000 ) ) ;
#199 = FACE_OUTER_BOUND ( 'NONE', #161, .T. ) ;
#200 = PLANE ( 'NONE',  #144 ) ;
#201 = DIRECTION ( 'NONE',  ( -1.000000000000000000, 2.428612866367527500E-016, -5.503889944476452500E-016 ) ) ;
#202 = UNCERTAINTY_MEASURE_WITH_UNIT (LENGTH_MEASURE( 1.000000000000000100E-005 ), #154, 'distance_accuracy_value', 'NONE');
#203 = COLOUR_RGB ( '',0.9607843137254902200, 0.6196078431372549200, 0.7215686274509803800 ) ;
#204 = PLANE ( 'NONE',  #32 ) ;
#205 = PRESENTATION_STYLE_ASSIGNMENT (( #131 ) ) ;
#206 = FILL_AREA_STYLE ('',( #47 ) ) ;
#207 =( LENGTH_UNIT ( ) NAMED_UNIT ( * ) SI_UNIT ( $, .METRE. ) );
#208 = VERTEX_POINT ( 'NONE', #152 ) ;
#209 = FILL_AREA_STYLE ('',( #174 ) ) ;
#210 = UNCERTAINTY_MEASURE_WITH_UNIT (LENGTH_MEASURE( 1.000000000000000100E-005 ), #114, 'distance_accuracy_value', 'NONE');
#211 = AXIS2_PLACEMENT_3D ( 'NONE', #135, #103, #82 ) ;
ENDSEC;
END-ISO-10303-21;
