ISO-10303-21;
HEADER;
FILE_DESCRIPTION (( 'STEP AP203' ),
    '1' );
FILE_NAME ('6VW3-04.STEP',
    '2022-02-02T10:50:38',
    ( '' ),
    ( '' ),
    'SwSTEP 2.0',
    'SolidWorks 2020',
    '' );
FILE_SCHEMA (( 'CONFIG_CONTROL_DESIGN' ));
ENDSEC;

DATA;
#1 = PERSON_AND_ORGANIZATION ( #170, #28 ) ;
#2 = FACE_OUTER_BOUND ( 'NONE', #126, .T. ) ;
#3 = CARTESIAN_POINT ( 'NONE',  ( 29.99999999999997158, 0.000000000000000000, -5.000000000000000888 ) ) ;
#4 = ADVANCED_BREP_SHAPE_REPRESENTATION ( '6VW3-04', ( #173, #112 ), #144 ) ;
#5 = ORIENTED_EDGE ( 'NONE', *, *, #212, .F. ) ;
#6 = SHAPE_DEFINITION_REPRESENTATION ( #177, #4 ) ;
#7 = LINE ( 'NONE', #85, #74 ) ;
#8 = CARTESIAN_POINT ( 'NONE',  ( -30.00000000000002842, 3.000000000000000000, -5.000000000000000888 ) ) ;
#9 = CLOSED_SHELL ( 'NONE', ( #16, #110, #80, #229, #75, #155 ) ) ;
#10 = DIRECTION ( 'NONE',  ( -0.000000000000000000, -1.000000000000000000, -0.000000000000000000 ) ) ;
#11 = PLANE ( 'NONE',  #40 ) ;
#12 = DATE_TIME_ROLE ( 'creation_date' ) ;
#13 = APPROVAL_ROLE ( '' ) ;
#14 = VECTOR ( 'NONE', #129, 1000.000000000000000 ) ;
#15 = ORIENTED_EDGE ( 'NONE', *, *, #61, .T. ) ;
#16 = ADVANCED_FACE ( 'NONE', ( #2 ), #25, .F. ) ;
#17 = CALENDAR_DATE ( 2022, 2, 2 ) ;
#18 = LOCAL_TIME ( 10, 50, 38.00000000000000000, #89 ) ;
#19 = ORIENTED_EDGE ( 'NONE', *, *, #208, .T. ) ;
#20 = CC_DESIGN_DATE_AND_TIME_ASSIGNMENT ( #49, #12, ( #53 ) ) ;
#21 = DIRECTION ( 'NONE',  ( 0.000000000000000000, 1.000000000000000000, 0.000000000000000000 ) ) ;
#22 = DIRECTION ( 'NONE',  ( -0.000000000000000000, -0.000000000000000000, -1.000000000000000000 ) ) ;
#23 = DIRECTION ( 'NONE',  ( -0.000000000000000000, -1.000000000000000000, -0.000000000000000000 ) ) ;
#24 = SECURITY_CLASSIFICATION ( '', '', #164 ) ;
#25 = PLANE ( 'NONE',  #146 ) ;
#26 = CARTESIAN_POINT ( 'NONE',  ( -30.00000000000002842, 0.000000000000000000, -5.000000000000000888 ) ) ;
#27 = DIRECTION ( 'NONE',  ( 0.000000000000000000, 0.000000000000000000, 1.000000000000000000 ) ) ;
#28 = ORGANIZATION ( 'UNSPECIFIED', 'UNSPECIFIED', '' ) ;
#29 = CARTESIAN_POINT ( 'NONE',  ( -30.00000000000002842, 0.000000000000000000, -5.000000000000000888 ) ) ;
#30 = DIRECTION ( 'NONE',  ( -1.000000000000000000, -0.000000000000000000, -0.000000000000000000 ) ) ;
#31 = DATE_TIME_ROLE ( 'classification_date' ) ;
#32 = ORIENTED_EDGE ( 'NONE', *, *, #95, .F. ) ;
#33 = PRODUCT_DEFINITION_FORMATION_WITH_SPECIFIED_SOURCE ( 'ANY', '', #69, .NOT_KNOWN. ) ;
#34 = APPROVAL_ROLE ( '' ) ;
#35 = CALENDAR_DATE ( 2022, 2, 2 ) ;
#36 = AXIS2_PLACEMENT_3D ( 'NONE', #140, #167, #81 ) ;
#37 = ORIENTED_EDGE ( 'NONE', *, *, #66, .F. ) ;
#38 = PLANE ( 'NONE',  #236 ) ;
#39 = VERTEX_POINT ( 'NONE', #99 ) ;
#40 = AXIS2_PLACEMENT_3D ( 'NONE', #130, #43, #65 ) ;
#41 = EDGE_CURVE ( 'NONE', #199, #79, #165, .T. ) ;
#42 = EDGE_LOOP ( 'NONE', ( #15, #196, #60, #52 ) ) ;
#43 = DIRECTION ( 'NONE',  ( 0.000000000000000000, 1.000000000000000000, 0.000000000000000000 ) ) ;
#44 = CARTESIAN_POINT ( 'NONE',  ( -30.00000000000002842, 3.000000000000000000, 4.999999999999999112 ) ) ;
#45 = DIRECTION ( 'NONE',  ( 1.000000000000000000, 0.000000000000000000, -0.000000000000000000 ) ) ;
#46 = APPROVAL_PERSON_ORGANIZATION ( #118, #73, #34 ) ;
#47 = DIRECTION ( 'NONE',  ( -0.000000000000000000, -1.000000000000000000, -0.000000000000000000 ) ) ;
#48 = PERSON_AND_ORGANIZATION ( #170, #28 ) ;
#49 = DATE_AND_TIME ( #213, #159 ) ;
#50 = APPROVAL_DATE_TIME ( #232, #235 ) ;
#51 = APPLICATION_CONTEXT ( 'configuration controlled 3d designs of mechanical parts and assemblies' ) ;
#52 = ORIENTED_EDGE ( 'NONE', *, *, #147, .T. ) ;
#53 = PRODUCT_DEFINITION ( 'UNKNOWN', '', #33, #160 ) ;
#54 = CARTESIAN_POINT ( 'NONE',  ( 29.99999999999997158, 3.000000000000000000, -5.000000000000000888 ) ) ;
#55 = VECTOR ( 'NONE', #23, 1000.000000000000000 ) ;
#56 = CARTESIAN_POINT ( 'NONE',  ( 0.000000000000000000, 0.000000000000000000, 0.000000000000000000 ) ) ;
#57 = VERTEX_POINT ( 'NONE', #221 ) ;
#58 = APPROVAL_PERSON_ORGANIZATION ( #194, #139, #76 ) ;
#59 = PLANE ( 'NONE',  #36 ) ;
#60 = ORIENTED_EDGE ( 'NONE', *, *, #183, .F. ) ;
#61 = EDGE_CURVE ( 'NONE', #148, #199, #141, .T. ) ;
#62 = VECTOR ( 'NONE', #104, 1000.000000000000000 ) ;
#63 = CARTESIAN_POINT ( 'NONE',  ( -30.00000000000002842, 0.000000000000000000, 4.999999999999999112 ) ) ;
#64 = CARTESIAN_POINT ( 'NONE',  ( -30.00000000000002842, 3.000000000000000000, -5.000000000000000888 ) ) ;
#65 = DIRECTION ( 'NONE',  ( 0.000000000000000000, -0.000000000000000000, 1.000000000000000000 ) ) ;
#66 = EDGE_CURVE ( 'NONE', #115, #79, #88, .T. ) ;
#67 = CARTESIAN_POINT ( 'NONE',  ( -30.00000000000002842, 3.000000000000000000, 4.999999999999999112 ) ) ;
#68 = DIRECTION ( 'NONE',  ( -0.000000000000000000, -0.000000000000000000, -1.000000000000000000 ) ) ;
#69 = PRODUCT ( '6VW3-04', '6VW3-04', '', ( #98 ) ) ;
#70 = DATE_AND_TIME ( #227, #128 ) ;
#71 = VECTOR ( 'NONE', #30, 1000.000000000000000 ) ;
#72 = ORIENTED_EDGE ( 'NONE', *, *, #61, .F. ) ;
#73 = APPROVAL ( #198, 'UNSPECIFIED' ) ;
#74 = VECTOR ( 'NONE', #84, 1000.000000000000000 ) ;
#75 = ADVANCED_FACE ( 'NONE', ( #101 ), #38, .T. ) ;
#76 = APPROVAL_ROLE ( '' ) ;
#77 = CC_DESIGN_DATE_AND_TIME_ASSIGNMENT ( #70, #31, ( #24 ) ) ;
#78 = FACE_OUTER_BOUND ( 'NONE', #204, .T. ) ;
#79 = VERTEX_POINT ( 'NONE', #3 ) ;
#80 = ADVANCED_FACE ( 'NONE', ( #78 ), #59, .F. ) ;
#81 = DIRECTION ( 'NONE',  ( 0.000000000000000000, 0.000000000000000000, -1.000000000000000000 ) ) ;
#82 = PLANE ( 'NONE',  #106 ) ;
#83 = DIRECTION ( 'NONE',  ( -1.000000000000000000, 0.000000000000000000, -0.000000000000000000 ) ) ;
#84 = DIRECTION ( 'NONE',  ( 1.000000000000000000, 0.000000000000000000, 0.000000000000000000 ) ) ;
#85 = CARTESIAN_POINT ( 'NONE',  ( -30.00000000000002842, 3.000000000000000000, 4.999999999999999112 ) ) ;
#86 = CC_DESIGN_APPROVAL ( #235, ( #24 ) ) ;
#87 = CC_DESIGN_PERSON_AND_ORGANIZATION_ASSIGNMENT ( #91, #158, ( #33 ) ) ;
#88 = LINE ( 'NONE', #54, #55 ) ;
#89 = COORDINATED_UNIVERSAL_TIME_OFFSET ( 0, 0, .AHEAD. ) ;
#90 = ORIENTED_EDGE ( 'NONE', *, *, #41, .F. ) ;
#91 = PERSON_AND_ORGANIZATION ( #170, #28 ) ;
#92 = VECTOR ( 'NONE', #68, 1000.000000000000000 ) ;
#93 = CC_DESIGN_PERSON_AND_ORGANIZATION_ASSIGNMENT ( #1, #114, ( #24 ) ) ;
#94 = ORIENTED_EDGE ( 'NONE', *, *, #66, .T. ) ;
#95 = EDGE_CURVE ( 'NONE', #39, #195, #209, .T. ) ;
#96 = APPROVAL_STATUS ( 'not_yet_approved' ) ;
#97 = ORIENTED_EDGE ( 'NONE', *, *, #135, .T. ) ;
#98 = MECHANICAL_CONTEXT ( 'NONE', #180, 'mechanical' ) ;
#99 = CARTESIAN_POINT ( 'NONE',  ( -30.00000000000002842, 3.000000000000000000, -5.000000000000000888 ) ) ;
#100 = ORIENTED_EDGE ( 'NONE', *, *, #212, .T. ) ;
#101 = FACE_OUTER_BOUND ( 'NONE', #188, .T. ) ;
#102 = VERTEX_POINT ( 'NONE', #67 ) ;
#103 = PLANE ( 'NONE',  #231 ) ;
#104 = DIRECTION ( 'NONE',  ( 1.000000000000000000, 0.000000000000000000, 0.000000000000000000 ) ) ;
#105 = CC_DESIGN_PERSON_AND_ORGANIZATION_ASSIGNMENT ( #178, #201, ( #53 ) ) ;
#106 = AXIS2_PLACEMENT_3D ( 'NONE', #8, #142, #45 ) ;
#107 = LINE ( 'NONE', #193, #71 ) ;
#108 = DIRECTION ( 'NONE',  ( 0.000000000000000000, 0.000000000000000000, 1.000000000000000000 ) ) ;
#109 = CARTESIAN_POINT ( 'NONE',  ( 29.99999999999997158, 3.000000000000000000, -5.000000000000000888 ) ) ;
#110 = ADVANCED_FACE ( 'NONE', ( #143 ), #82, .F. ) ;
#111 = COORDINATED_UNIVERSAL_TIME_OFFSET ( 0, 0, .AHEAD. ) ;
#112 = AXIS2_PLACEMENT_3D ( 'NONE', #56, #162, #145 ) ;
#113 = PERSON_AND_ORGANIZATION ( #170, #28 ) ;
#114 = PERSON_AND_ORGANIZATION_ROLE ( 'classification_officer' ) ;
#115 = VERTEX_POINT ( 'NONE', #152 ) ;
#116 = VECTOR ( 'NONE', #171, 1000.000000000000000 ) ;
#117 = APPLICATION_PROTOCOL_DEFINITION ( 'international standard', 'config_control_design', 1994, #180 ) ;
#118 = PERSON_AND_ORGANIZATION ( #170, #28 ) ;
#119 = CARTESIAN_POINT ( 'NONE',  ( 29.99999999999997158, 3.000000000000000000, -5.000000000000000888 ) ) ;
#120 = EDGE_CURVE ( 'NONE', #79, #195, #151, .T. ) ;
#121 = CARTESIAN_POINT ( 'NONE',  ( 0.000000000000000000, 3.000000000000000000, 0.000000000000000000 ) ) ;
#122 = CARTESIAN_POINT ( 'NONE',  ( 29.99999999999997158, 0.000000000000000000, -5.000000000000000888 ) ) ;
#123 = DIRECTION ( 'NONE',  ( 0.000000000000000000, -0.000000000000000000, 1.000000000000000000 ) ) ;
#124 = CC_DESIGN_SECURITY_CLASSIFICATION ( #24, ( #33 ) ) ;
#125 = DIRECTION ( 'NONE',  ( 0.000000000000000000, 0.000000000000000000, -1.000000000000000000 ) ) ;
#126 = EDGE_LOOP ( 'NONE', ( #179, #37, #5, #138 ) ) ;
#127 = LINE ( 'NONE', #64, #116 ) ;
#128 = LOCAL_TIME ( 10, 50, 38.00000000000000000, #218 ) ;
#129 = DIRECTION ( 'NONE',  ( -1.000000000000000000, -0.000000000000000000, -0.000000000000000000 ) ) ;
#130 = CARTESIAN_POINT ( 'NONE',  ( 0.000000000000000000, 0.000000000000000000, 0.000000000000000000 ) ) ;
#131 = PERSON_AND_ORGANIZATION_ROLE ( 'creator' ) ;
#132 = DATE_AND_TIME ( #17, #134 ) ;
#133 = EDGE_LOOP ( 'NONE', ( #90, #72, #230, #163 ) ) ;
#134 = LOCAL_TIME ( 10, 50, 38.00000000000000000, #156 ) ;
#135 = EDGE_CURVE ( 'NONE', #195, #148, #192, .T. ) ;
#136 =( NAMED_UNIT ( * ) SI_UNIT ( $, .STERADIAN. ) SOLID_ANGLE_UNIT ( ) );
#137 = VECTOR ( 'NONE', #168, 1000.000000000000000 ) ;
#138 = ORIENTED_EDGE ( 'NONE', *, *, #233, .T. ) ;
#139 = APPROVAL ( #96, 'UNSPECIFIED' ) ;
#140 = CARTESIAN_POINT ( 'NONE',  ( -30.00000000000002842, 3.000000000000000000, -5.000000000000000888 ) ) ;
#141 = LINE ( 'NONE', #205, #62 ) ;
#142 = DIRECTION ( 'NONE',  ( 0.000000000000000000, 0.000000000000000000, 1.000000000000000000 ) ) ;
#143 = FACE_OUTER_BOUND ( 'NONE', #234, .T. ) ;
#144 =( GEOMETRIC_REPRESENTATION_CONTEXT ( 3 ) GLOBAL_UNCERTAINTY_ASSIGNED_CONTEXT ( ( #203 ) ) GLOBAL_UNIT_ASSIGNED_CONTEXT ( ( #189, #225, #136 ) ) REPRESENTATION_CONTEXT ( 'NONE', 'WORKASPACE' ) );
#145 = DIRECTION ( 'NONE',  ( 1.000000000000000000, 0.000000000000000000, 0.000000000000000000 ) ) ;
#146 = AXIS2_PLACEMENT_3D ( 'NONE', #119, #166, #27 ) ;
#147 = EDGE_CURVE ( 'NONE', #102, #148, #211, .T. ) ;
#148 = VERTEX_POINT ( 'NONE', #63 ) ;
#149 = DATE_AND_TIME ( #35, #220 ) ;
#150 = PRODUCT_RELATED_PRODUCT_CATEGORY ( 'detail', '', ( #69 ) ) ;
#151 = LINE ( 'NONE', #224, #14 ) ;
#152 = CARTESIAN_POINT ( 'NONE',  ( 29.99999999999997158, 3.000000000000000000, -5.000000000000000888 ) ) ;
#153 = LINE ( 'NONE', #109, #92 ) ;
#154 = PERSON_AND_ORGANIZATION ( #170, #28 ) ;
#155 = ADVANCED_FACE ( 'NONE', ( #207 ), #11, .F. ) ;
#156 = COORDINATED_UNIVERSAL_TIME_OFFSET ( 0, 0, .AHEAD. ) ;
#157 = ORIENTED_EDGE ( 'NONE', *, *, #215, .T. ) ;
#158 = PERSON_AND_ORGANIZATION_ROLE ( 'design_supplier' ) ;
#159 = LOCAL_TIME ( 10, 50, 38.00000000000000000, #214 ) ;
#160 = DESIGN_CONTEXT ( 'detailed design', #51, 'design' ) ;
#161 = ORIENTED_EDGE ( 'NONE', *, *, #120, .T. ) ;
#162 = DIRECTION ( 'NONE',  ( 0.000000000000000000, 0.000000000000000000, 1.000000000000000000 ) ) ;
#163 = ORIENTED_EDGE ( 'NONE', *, *, #120, .F. ) ;
#164 = SECURITY_CLASSIFICATION_LEVEL ( 'unclassified' ) ;
#165 = LINE ( 'NONE', #122, #202 ) ;
#166 = DIRECTION ( 'NONE',  ( -1.000000000000000000, 0.000000000000000000, 0.000000000000000000 ) ) ;
#167 = DIRECTION ( 'NONE',  ( 1.000000000000000000, 0.000000000000000000, 0.000000000000000000 ) ) ;
#168 = DIRECTION ( 'NONE',  ( -0.000000000000000000, -1.000000000000000000, -0.000000000000000000 ) ) ;
#169 = VECTOR ( 'NONE', #47, 1000.000000000000000 ) ;
#170 = PERSON ( 'UNSPECIFIED', 'UNSPECIFIED', 'UNSPECIFIED', ('UNSPECIFIED'), ('UNSPECIFIED'), ('UNSPECIFIED') ) ;
#171 = DIRECTION ( 'NONE',  ( 0.000000000000000000, 0.000000000000000000, 1.000000000000000000 ) ) ;
#172 = CARTESIAN_POINT ( 'NONE',  ( -30.00000000000002842, 3.000000000000000000, 4.999999999999999112 ) ) ;
#173 = MANIFOLD_SOLID_BREP ( 'Boss-Extrude1', #9 ) ;
#174 = CARTESIAN_POINT ( 'NONE',  ( -30.00000000000002842, 3.000000000000000000, -5.000000000000000888 ) ) ;
#175 = APPLICATION_PROTOCOL_DEFINITION ( 'international standard', 'config_control_design', 1994, #51 ) ;
#176 = APPROVAL_STATUS ( 'not_yet_approved' ) ;
#177 = PRODUCT_DEFINITION_SHAPE ( 'NONE', 'NONE',  #53 ) ;
#178 = PERSON_AND_ORGANIZATION ( #170, #28 ) ;
#179 = ORIENTED_EDGE ( 'NONE', *, *, #41, .T. ) ;
#180 = APPLICATION_CONTEXT ( 'configuration controlled 3d designs of mechanical parts and assemblies' ) ;
#181 = APPROVAL_DATE_TIME ( #132, #73 ) ;
#182 = ORIENTED_EDGE ( 'NONE', *, *, #208, .F. ) ;
#183 = EDGE_CURVE ( 'NONE', #102, #57, #7, .T. ) ;
#184 = APPROVAL_DATE_TIME ( #149, #139 ) ;
#185 = ORIENTED_EDGE ( 'NONE', *, *, #183, .T. ) ;
#186 = APPROVAL_PERSON_ORGANIZATION ( #113, #235, #13 ) ;
#187 = LINE ( 'NONE', #190, #137 ) ;
#188 = EDGE_LOOP ( 'NONE', ( #100, #19, #157, #185 ) ) ;
#189 =( LENGTH_UNIT ( ) NAMED_UNIT ( * ) SI_UNIT ( .MILLI., .METRE. ) );
#190 = CARTESIAN_POINT ( 'NONE',  ( 29.99999999999997158, 3.000000000000000000, 4.999999999999999112 ) ) ;
#191 = VECTOR ( 'NONE', #108, 1000.000000000000000 ) ;
#192 = LINE ( 'NONE', #29, #191 ) ;
#193 = CARTESIAN_POINT ( 'NONE',  ( -30.00000000000002842, 3.000000000000000000, -5.000000000000000888 ) ) ;
#194 = PERSON_AND_ORGANIZATION ( #170, #28 ) ;
#195 = VERTEX_POINT ( 'NONE', #26 ) ;
#196 = ORIENTED_EDGE ( 'NONE', *, *, #233, .F. ) ;
#197 = VECTOR ( 'NONE', #10, 1000.000000000000000 ) ;
#198 = APPROVAL_STATUS ( 'not_yet_approved' ) ;
#199 = VERTEX_POINT ( 'NONE', #226 ) ;
#200 = CC_DESIGN_PERSON_AND_ORGANIZATION_ASSIGNMENT ( #154, #237, ( #69 ) ) ;
#201 = PERSON_AND_ORGANIZATION_ROLE ( 'creator' ) ;
#202 = VECTOR ( 'NONE', #22, 1000.000000000000000 ) ;
#203 = UNCERTAINTY_MEASURE_WITH_UNIT (LENGTH_MEASURE( 1.000000000000000082E-05 ), #189, 'distance_accuracy_value', 'NONE');
#204 = EDGE_LOOP ( 'NONE', ( #97, #217, #219, #223 ) ) ;
#205 = CARTESIAN_POINT ( 'NONE',  ( -30.00000000000002842, 0.000000000000000000, 4.999999999999999112 ) ) ;
#206 = FACE_OUTER_BOUND ( 'NONE', #42, .T. ) ;
#207 = FACE_OUTER_BOUND ( 'NONE', #133, .T. ) ;
#208 = EDGE_CURVE ( 'NONE', #115, #39, #107, .T. ) ;
#209 = LINE ( 'NONE', #174, #197 ) ;
#210 = CC_DESIGN_APPROVAL ( #139, ( #33 ) ) ;
#211 = LINE ( 'NONE', #172, #169 ) ;
#212 = EDGE_CURVE ( 'NONE', #57, #115, #153, .T. ) ;
#213 = CALENDAR_DATE ( 2022, 2, 2 ) ;
#214 = COORDINATED_UNIVERSAL_TIME_OFFSET ( 0, 0, .AHEAD. ) ;
#215 = EDGE_CURVE ( 'NONE', #39, #102, #127, .T. ) ;
#216 = CC_DESIGN_APPROVAL ( #73, ( #53 ) ) ;
#217 = ORIENTED_EDGE ( 'NONE', *, *, #147, .F. ) ;
#218 = COORDINATED_UNIVERSAL_TIME_OFFSET ( 0, 0, .AHEAD. ) ;
#219 = ORIENTED_EDGE ( 'NONE', *, *, #215, .F. ) ;
#220 = LOCAL_TIME ( 10, 50, 38.00000000000000000, #111 ) ;
#221 = CARTESIAN_POINT ( 'NONE',  ( 29.99999999999997158, 3.000000000000000000, 4.999999999999999112 ) ) ;
#222 = CC_DESIGN_PERSON_AND_ORGANIZATION_ASSIGNMENT ( #48, #131, ( #33 ) ) ;
#223 = ORIENTED_EDGE ( 'NONE', *, *, #95, .T. ) ;
#224 = CARTESIAN_POINT ( 'NONE',  ( -30.00000000000002842, 0.000000000000000000, -5.000000000000000888 ) ) ;
#225 =( NAMED_UNIT ( * ) PLANE_ANGLE_UNIT ( ) SI_UNIT ( $, .RADIAN. ) );
#226 = CARTESIAN_POINT ( 'NONE',  ( 29.99999999999997158, 0.000000000000000000, 4.999999999999999112 ) ) ;
#227 = CALENDAR_DATE ( 2022, 2, 2 ) ;
#228 = CALENDAR_DATE ( 2022, 2, 2 ) ;
#229 = ADVANCED_FACE ( 'NONE', ( #206 ), #103, .F. ) ;
#230 = ORIENTED_EDGE ( 'NONE', *, *, #135, .F. ) ;
#231 = AXIS2_PLACEMENT_3D ( 'NONE', #44, #125, #83 ) ;
#232 = DATE_AND_TIME ( #228, #18 ) ;
#233 = EDGE_CURVE ( 'NONE', #57, #199, #187, .T. ) ;
#234 = EDGE_LOOP ( 'NONE', ( #161, #32, #182, #94 ) ) ;
#235 = APPROVAL ( #176, 'UNSPECIFIED' ) ;
#236 = AXIS2_PLACEMENT_3D ( 'NONE', #121, #21, #123 ) ;
#237 = PERSON_AND_ORGANIZATION_ROLE ( 'design_owner' ) ;
ENDSEC;
END-ISO-10303-21;
