ISO-10303-21;
HEADER;
FILE_DESCRIPTION (( 'STEP AP203' ),
    '1' );
FILE_NAME ('M134_9435-009.STEP',
    '2020-05-27T14:17:07',
    ( '' ),
    ( '' ),
    'SwSTEP 2.0',
    'SolidWorks 2018',
    '' );
FILE_SCHEMA (( 'CONFIG_CONTROL_DESIGN' ));
ENDSEC;

DATA;
#1 = VECTOR ( 'NONE', #275, 1000.000000000000000 ) ;
#2 = ORIENTED_EDGE ( 'NONE', *, *, #209, .T. ) ;
#3 = EDGE_LOOP ( 'NONE', ( #211, #250, #170, #253, #226 ) ) ;
#4 = SECURITY_CLASSIFICATION_LEVEL ( 'unclassified' ) ;
#5 = CC_DESIGN_APPROVAL ( #265, ( #266 ) ) ;
#6 = PERSON_AND_ORGANIZATION ( #234, #14 ) ;
#7 = ORIENTED_EDGE ( 'NONE', *, *, #133, .F. ) ;
#8 = AXIS2_PLACEMENT_3D ( 'NONE', #192, #130, #260 ) ;
#9 = VECTOR ( 'NONE', #171, 1000.000000000000000 ) ;
#10 = CIRCLE ( 'NONE', #228, 2.000000000000000000 ) ;
#11 = VERTEX_POINT ( 'NONE', #268 ) ;
#12 = EDGE_CURVE ( 'NONE', #94, #23, #59, .T. ) ;
#13 = CALENDAR_DATE ( 2020, 27, 5 ) ;
#14 = ORGANIZATION ( 'UNSPECIFIED', 'UNSPECIFIED', '' ) ;
#15 = LINE ( 'NONE', #17, #165 ) ;
#16 = VERTEX_POINT ( 'NONE', #161 ) ;
#17 = CARTESIAN_POINT ( 'NONE',  ( -1.999999999999988010, 2.000000000000002220, -1.734723475976807094E-15 ) ) ;
#18 = CALENDAR_DATE ( 2020, 27, 5 ) ;
#19 = ORIENTED_EDGE ( 'NONE', *, *, #45, .F. ) ;
#20 = CARTESIAN_POINT ( 'NONE',  ( 2.000000000000001776, 1.999999999999999556, 3.999999999999994671 ) ) ;
#21 = DIRECTION ( 'NONE',  ( 1.000000000000000000, -3.356689926015094611E-16, 4.518694760382571408E-17 ) ) ;
#22 = FACE_OUTER_BOUND ( 'NONE', #264, .T. ) ;
#23 = VERTEX_POINT ( 'NONE', #98 ) ;
#24 = CARTESIAN_POINT ( 'NONE',  ( -2.000000000000001776, -1.999999999999999556, -8.673617379884035472E-16 ) ) ;
#25 = DIRECTION ( 'NONE',  ( -1.000000000000000000, 4.440892098500599538E-16, 0.0000000000000000000 ) ) ;
#26 = DIRECTION ( 'NONE',  ( -1.000000000000000000, 4.440892098500599538E-16, 0.0000000000000000000 ) ) ;
#27 = APPROVAL_ROLE ( '' ) ;
#28 = CARTESIAN_POINT ( 'NONE',  ( 0.0000000000000000000, 0.0000000000000000000, 0.0000000000000000000 ) ) ;
#29 = PERSON_AND_ORGANIZATION_ROLE ( 'design_supplier' ) ;
#30 = PERSON_AND_ORGANIZATION ( #234, #14 ) ;
#31 = CALENDAR_DATE ( 2020, 27, 5 ) ;
#32 = FACE_OUTER_BOUND ( 'NONE', #123, .T. ) ;
#33 = CC_DESIGN_PERSON_AND_ORGANIZATION_ASSIGNMENT ( #104, #47, ( #238 ) ) ;
#34 = CYLINDRICAL_SURFACE ( 'NONE', #246, 2.000000000000000000 ) ;
#35 = DIRECTION ( 'NONE',  ( -1.000000000000000000, 3.356689926015094611E-16, -4.518694760382571408E-17 ) ) ;
#36 = PLANE ( 'NONE',  #86 ) ;
#37 = LINE ( 'NONE', #24, #261 ) ;
#38 = EDGE_LOOP ( 'NONE', ( #2, #186, #185, #102 ) ) ;
#39 = DIRECTION ( 'NONE',  ( -1.000000000000000000, 3.356689926015094611E-16, -4.518694760382571408E-17 ) ) ;
#40 = DIRECTION ( 'NONE',  ( -4.518694760382572640E-17, 4.438926453054892628E-17, -1.000000000000000000 ) ) ;
#41 = DIRECTION ( 'NONE',  ( -4.518694760382572640E-17, 4.438926453054892628E-17, -1.000000000000000000 ) ) ;
#42 = FACE_OUTER_BOUND ( 'NONE', #70, .T. ) ;
#43 = CARTESIAN_POINT ( 'NONE',  ( -1.999999999999988010, 2.000000000000001776, 4.000000000000000000 ) ) ;
#44 = CARTESIAN_POINT ( 'NONE',  ( -2.000000000000001776, -1.999999999999999556, -8.673617379884035472E-16 ) ) ;
#45 = EDGE_CURVE ( 'NONE', #244, #11, #15, .T. ) ;
#46 = PERSON_AND_ORGANIZATION_ROLE ( 'creator' ) ;
#47 = PERSON_AND_ORGANIZATION_ROLE ( 'design_owner' ) ;
#48 = VERTEX_POINT ( 'NONE', #97 ) ;
#49 = DIRECTION ( 'NONE',  ( 4.518694760382572640E-17, -4.438926453054892628E-17, 1.000000000000000000 ) ) ;
#50 = MANIFOLD_SOLID_BREP ( 'Base-Extrusion', #115 ) ;
#51 = LINE ( 'NONE', #146, #9 ) ;
#52 =( GEOMETRIC_REPRESENTATION_CONTEXT ( 3 ) GLOBAL_UNCERTAINTY_ASSIGNED_CONTEXT ( ( #201 ) ) GLOBAL_UNIT_ASSIGNED_CONTEXT ( ( #218, #67, #177 ) ) REPRESENTATION_CONTEXT ( 'NONE', 'WORKASPACE' ) );
#53 = FACE_OUTER_BOUND ( 'NONE', #3, .T. ) ;
#54 = ORIENTED_EDGE ( 'NONE', *, *, #154, .F. ) ;
#55 = EDGE_CURVE ( 'NONE', #23, #244, #200, .T. ) ;
#56 = ADVANCED_FACE ( 'NONE', ( #53 ), #163, .F. ) ;
#57 = LOCAL_TIME ( 16, 17, 7.000000000000000000, #168 ) ;
#58 = ADVANCED_FACE ( 'NONE', ( #214 ), #36, .T. ) ;
#59 = CIRCLE ( 'NONE', #270, 2.000000000000000000 ) ;
#60 = VECTOR ( 'NONE', #41, 1000.000000000000000 ) ;
#61 = DIRECTION ( 'NONE',  ( -4.518694760382572640E-17, 4.438926453054892628E-17, -1.000000000000000000 ) ) ;
#62 = DATE_AND_TIME ( #31, #116 ) ;
#63 = ORIENTED_EDGE ( 'NONE', *, *, #45, .T. ) ;
#64 = DIRECTION ( 'NONE',  ( -3.356689926015094611E-16, -1.000000000000000000, 4.438926453054887081E-17 ) ) ;
#65 = CYLINDRICAL_SURFACE ( 'NONE', #99, 2.000000000000000000 ) ;
#66 = DATE_TIME_ROLE ( 'creation_date' ) ;
#67 =( NAMED_UNIT ( * ) PLANE_ANGLE_UNIT ( ) SI_UNIT ( $, .RADIAN. ) );
#68 = DIRECTION ( 'NONE',  ( 1.000000000000000000, -4.440892098500599538E-16, 4.518694760382572640E-17 ) ) ;
#69 = EDGE_CURVE ( 'NONE', #16, #132, #109, .T. ) ;
#70 = EDGE_LOOP ( 'NONE', ( #128, #141, #182, #175 ) ) ;
#71 = PERSON_AND_ORGANIZATION ( #234, #14 ) ;
#72 = ORIENTED_EDGE ( 'NONE', *, *, #162, .F. ) ;
#73 = ORIENTED_EDGE ( 'NONE', *, *, #159, .F. ) ;
#74 = ADVANCED_FACE ( 'NONE', ( #32 ), #255, .F. ) ;
#75 = CARTESIAN_POINT ( 'NONE',  ( -2.000000000000001776, 1.010643099614799441E-15, -8.673617379884035472E-16 ) ) ;
#76 = COORDINATED_UNIVERSAL_TIME_OFFSET ( 1, 0, .AHEAD. ) ;
#77 = ORIENTED_EDGE ( 'NONE', *, *, #276, .T. ) ;
#78 = CARTESIAN_POINT ( 'NONE',  ( 2.000000000000001776, -2.000000000000000888, -8.673617379884035472E-16 ) ) ;
#79 = CC_DESIGN_PERSON_AND_ORGANIZATION_ASSIGNMENT ( #142, #29, ( #266 ) ) ;
#80 = DIRECTION ( 'NONE',  ( -1.000000000000000000, 4.440892098500599045E-16, -4.518694760382572640E-17 ) ) ;
#81 = CARTESIAN_POINT ( 'NONE',  ( -1.999999999999988010, 2.000000000000001776, 4.000000000000000000 ) ) ;
#82 = CARTESIAN_POINT ( 'NONE',  ( 2.000000000000015543, -9.432707979076108356E-16, 4.000000000000003553 ) ) ;
#83 = PERSON_AND_ORGANIZATION ( #234, #14 ) ;
#84 = VERTEX_POINT ( 'NONE', #78 ) ;
#85 = DIRECTION ( 'NONE',  ( -1.000000000000000000, 4.440892098500599538E-16, -4.518694760382568942E-17 ) ) ;
#86 = AXIS2_PLACEMENT_3D ( 'NONE', #75, #251, #80 ) ;
#87 = APPROVAL_STATUS ( 'not_yet_approved' ) ;
#88 = APPLICATION_CONTEXT ( 'configuration controlled 3d designs of mechanical parts and assemblies' ) ;
#89 = DIRECTION ( 'NONE',  ( 0.0000000000000000000, 0.0000000000000000000, 1.000000000000000000 ) ) ;
#90 = ORIENTED_EDGE ( 'NONE', *, *, #95, .F. ) ;
#91 = PRODUCT_RELATED_PRODUCT_CATEGORY ( 'detail', '', ( #238 ) ) ;
#92 = EDGE_CURVE ( 'NONE', #48, #132, #236, .T. ) ;
#93 = CC_DESIGN_SECURITY_CLASSIFICATION ( #273, ( #266 ) ) ;
#94 = VERTEX_POINT ( 'NONE', #257 ) ;
#95 = EDGE_CURVE ( 'NONE', #138, #195, #10, .T. ) ;
#96 = DATE_AND_TIME ( #269, #155 ) ;
#97 = CARTESIAN_POINT ( 'NONE',  ( -1.999999999999988010, -2.000000000000000000, 4.000000000000003553 ) ) ;
#98 = CARTESIAN_POINT ( 'NONE',  ( 2.000000000000001776, 1.999999999999999556, 3.999999999999994671 ) ) ;
#99 = AXIS2_PLACEMENT_3D ( 'NONE', #252, #61, #25 ) ;
#100 = CARTESIAN_POINT ( 'NONE',  ( 2.000000000000015543, -9.432707979076108356E-16, 4.000000000000003553 ) ) ;
#101 = VECTOR ( 'NONE', #124, 1000.000000000000000 ) ;
#102 = ORIENTED_EDGE ( 'NONE', *, *, #148, .T. ) ;
#103 = DIRECTION ( 'NONE',  ( -4.518694760382572640E-17, 4.438926453054892628E-17, -1.000000000000000000 ) ) ;
#104 = PERSON_AND_ORGANIZATION ( #234, #14 ) ;
#105 = ADVANCED_BREP_SHAPE_REPRESENTATION ( 'M134_9435-009', ( #50, #272 ), #52 ) ;
#106 = CARTESIAN_POINT ( 'NONE',  ( -2.000000000000001776, 8.330860414927028365E-16, 3.999999999999996447 ) ) ;
#107 = AXIS2_PLACEMENT_3D ( 'NONE', #189, #126, #172 ) ;
#108 = CARTESIAN_POINT ( 'NONE',  ( -1.999999999999988010, -2.000000000000000000, 4.000000000000003553 ) ) ;
#109 = CIRCLE ( 'NONE', #107, 2.000000000000000000 ) ;
#110 = PERSON_AND_ORGANIZATION_ROLE ( 'creator' ) ;
#111 = AXIS2_PLACEMENT_3D ( 'NONE', #82, #103, #26 ) ;
#112 = APPROVAL_DATE_TIME ( #193, #265 ) ;
#113 = AXIS2_PLACEMENT_3D ( 'NONE', #176, #49, #68 ) ;
#114 = ORIENTED_EDGE ( 'NONE', *, *, #154, .T. ) ;
#115 = CLOSED_SHELL ( 'NONE', ( #222, #196, #203, #135, #74, #56, #58 ) ) ;
#116 = LOCAL_TIME ( 16, 17, 7.000000000000000000, #119 ) ;
#117 = ORIENTED_EDGE ( 'NONE', *, *, #92, .T. ) ;
#118 = DIRECTION ( 'NONE',  ( 1.000000000000000000, -4.440892098500599538E-16, 0.0000000000000000000 ) ) ;
#119 = COORDINATED_UNIVERSAL_TIME_OFFSET ( 1, 0, .AHEAD. ) ;
#120 = ORIENTED_EDGE ( 'NONE', *, *, #69, .F. ) ;
#121 = CARTESIAN_POINT ( 'NONE',  ( -1.999999999999988010, -2.000000000000000000, 4.000000000000003553 ) ) ;
#122 = CARTESIAN_POINT ( 'NONE',  ( -2.000000000000001776, 1.010643099614799441E-15, -8.673617379884035472E-16 ) ) ;
#123 = EDGE_LOOP ( 'NONE', ( #63, #178, #152, #157 ) ) ;
#124 = DIRECTION ( 'NONE',  ( -4.518694760382572640E-17, 4.438926453054892628E-17, -1.000000000000000000 ) ) ;
#125 = DIRECTION ( 'NONE',  ( 1.000000000000000000, -3.356689926015094611E-16, 4.518694760382571408E-17 ) ) ;
#126 = DIRECTION ( 'NONE',  ( 4.518694760382572640E-17, -4.438926453054892628E-17, 1.000000000000000000 ) ) ;
#127 = APPLICATION_PROTOCOL_DEFINITION ( 'international standard', 'config_control_design', 1994, #213 ) ;
#128 = ORIENTED_EDGE ( 'NONE', *, *, #259, .F. ) ;
#129 = PRODUCT_DEFINITION ( 'UNKNOWN', '', #266, #145 ) ;
#130 = DIRECTION ( 'NONE',  ( 4.518694760382572640E-17, -4.438926453054892628E-17, 1.000000000000000000 ) ) ;
#131 = DIRECTION ( 'NONE',  ( -4.518694760382572640E-17, 4.438926453054892628E-17, -1.000000000000000000 ) ) ;
#132 = VERTEX_POINT ( 'NONE', #44 ) ;
#133 = EDGE_CURVE ( 'NONE', #132, #84, #37, .T. ) ;
#134 = SHAPE_DEFINITION_REPRESENTATION ( #181, #105 ) ;
#135 = ADVANCED_FACE ( 'NONE', ( #271 ), #147, .T. ) ;
#136 = CC_DESIGN_DATE_AND_TIME_ASSIGNMENT ( #96, #239, ( #273 ) ) ;
#137 = COORDINATED_UNIVERSAL_TIME_OFFSET ( 1, 0, .AHEAD. ) ;
#138 = VERTEX_POINT ( 'NONE', #43 ) ;
#139 = AXIS2_PLACEMENT_3D ( 'NONE', #184, #205, #207 ) ;
#140 = DATE_AND_TIME ( #18, #230 ) ;
#141 = ORIENTED_EDGE ( 'NONE', *, *, #162, .T. ) ;
#142 = PERSON_AND_ORGANIZATION ( #234, #14 ) ;
#143 = PLANE ( 'NONE',  #179 ) ;
#144 = DIRECTION ( 'NONE',  ( -1.000000000000000000, 3.356689926015094611E-16, -4.518694760382571408E-17 ) ) ;
#145 = DESIGN_CONTEXT ( 'detailed design', #213, 'design' ) ;
#146 = CARTESIAN_POINT ( 'NONE',  ( -4.000000000000001776, 1.721264461192822645E-15, 3.999999999999996447 ) ) ;
#147 = CYLINDRICAL_SURFACE ( 'NONE', #111, 2.000000000000000000 ) ;
#148 = EDGE_CURVE ( 'NONE', #94, #84, #267, .T. ) ;
#149 = CARTESIAN_POINT ( 'NONE',  ( 2.000000000000001776, -2.000000000000001776, 4.000000000000003553 ) ) ;
#150 = APPROVAL_STATUS ( 'not_yet_approved' ) ;
#151 = PERSON_AND_ORGANIZATION_ROLE ( 'classification_officer' ) ;
#152 = ORIENTED_EDGE ( 'NONE', *, *, #174, .F. ) ;
#153 = DIRECTION ( 'NONE',  ( -1.000000000000000000, 4.440892098500599538E-16, 0.0000000000000000000 ) ) ;
#154 = EDGE_CURVE ( 'NONE', #11, #16, #245, .T. ) ;
#155 = LOCAL_TIME ( 16, 17, 7.000000000000000000, #229 ) ;
#156 = APPROVAL_PERSON_ORGANIZATION ( #71, #225, #27 ) ;
#157 = ORIENTED_EDGE ( 'NONE', *, *, #55, .T. ) ;
#158 = CC_DESIGN_PERSON_AND_ORGANIZATION_ASSIGNMENT ( #223, #151, ( #273 ) ) ;
#159 = EDGE_CURVE ( 'NONE', #48, #94, #204, .T. ) ;
#160 = APPROVAL ( #262, 'UNSPECIFIED' ) ;
#161 = CARTESIAN_POINT ( 'NONE',  ( -4.000000000000001776, 1.810042990253920104E-15, -7.769878427807520698E-16 ) ) ;
#162 = EDGE_CURVE ( 'NONE', #195, #16, #51, .T. ) ;
#163 = PLANE ( 'NONE',  #139 ) ;
#164 = DIRECTION ( 'NONE',  ( 4.518694760382572640E-17, -4.438926453054892628E-17, 1.000000000000000000 ) ) ;
#165 = VECTOR ( 'NONE', #35, 1000.000000000000000 ) ;
#166 = DIRECTION ( 'NONE',  ( 3.356689926015094611E-16, 1.000000000000000000, -4.438926453054887081E-17 ) ) ;
#167 = CARTESIAN_POINT ( 'NONE',  ( -2.000000000000001776, 8.330860414927028365E-16, 3.999999999999996447 ) ) ;
#168 = COORDINATED_UNIVERSAL_TIME_OFFSET ( 1, 0, .AHEAD. ) ;
#169 = DIRECTION ( 'NONE',  ( 4.518694760382572640E-17, -4.438926453054892628E-17, 1.000000000000000000 ) ) ;
#170 = ORIENTED_EDGE ( 'NONE', *, *, #159, .T. ) ;
#171 = DIRECTION ( 'NONE',  ( -4.518694760382572640E-17, 4.438926453054892628E-17, -1.000000000000000000 ) ) ;
#172 = DIRECTION ( 'NONE',  ( -1.000000000000000000, 4.440892098500599538E-16, -4.518694760382568942E-17 ) ) ;
#173 = CIRCLE ( 'NONE', #113, 2.000000000000000000 ) ;
#174 = EDGE_CURVE ( 'NONE', #23, #138, #235, .T. ) ;
#175 = ORIENTED_EDGE ( 'NONE', *, *, #92, .F. ) ;
#176 = CARTESIAN_POINT ( 'NONE',  ( 2.000000000000001776, -7.657137397854464877E-16, 0.0000000000000000000 ) ) ;
#177 =( NAMED_UNIT ( * ) SI_UNIT ( $, .STERADIAN. ) SOLID_ANGLE_UNIT ( ) );
#178 = ORIENTED_EDGE ( 'NONE', *, *, #276, .F. ) ;
#179 = AXIS2_PLACEMENT_3D ( 'NONE', #108, #166, #39 ) ;
#180 = ORIENTED_EDGE ( 'NONE', *, *, #133, .T. ) ;
#181 = PRODUCT_DEFINITION_SHAPE ( 'NONE', 'NONE',  #129 ) ;
#182 = ORIENTED_EDGE ( 'NONE', *, *, #69, .T. ) ;
#183 = VECTOR ( 'NONE', #144, 1000.000000000000000 ) ;
#184 = CARTESIAN_POINT ( 'NONE',  ( -2.000000000000001776, 8.330860414927028365E-16, 3.999999999999996447 ) ) ;
#185 = ORIENTED_EDGE ( 'NONE', *, *, #12, .F. ) ;
#186 = ORIENTED_EDGE ( 'NONE', *, *, #55, .F. ) ;
#187 = PERSON_AND_ORGANIZATION ( #234, #14 ) ;
#188 = DIRECTION ( 'NONE',  ( 4.518694760382572640E-17, -4.438926453054892628E-17, 1.000000000000000000 ) ) ;
#189 = CARTESIAN_POINT ( 'NONE',  ( -2.000000000000001776, 1.010643099614799441E-15, -8.673617379884035472E-16 ) ) ;
#190 = AXIS2_PLACEMENT_3D ( 'NONE', #233, #64, #21 ) ;
#191 = VECTOR ( 'NONE', #131, 1000.000000000000000 ) ;
#192 = CARTESIAN_POINT ( 'NONE',  ( -2.000000000000001776, 8.330860414927028365E-16, 3.999999999999996447 ) ) ;
#193 = DATE_AND_TIME ( #13, #57 ) ;
#194 = LINE ( 'NONE', #81, #191 ) ;
#195 = VERTEX_POINT ( 'NONE', #212 ) ;
#196 = ADVANCED_FACE ( 'NONE', ( #22 ), #65, .T. ) ;
#197 = CC_DESIGN_DATE_AND_TIME_ASSIGNMENT ( #62, #66, ( #129 ) ) ;
#198 = APPROVAL_ROLE ( '' ) ;
#199 = APPROVAL_PERSON_ORGANIZATION ( #30, #160, #198 ) ;
#200 = LINE ( 'NONE', #20, #221 ) ;
#201 = UNCERTAINTY_MEASURE_WITH_UNIT (LENGTH_MEASURE( 1.000000000000000082E-05 ), #218, 'distance_accuracy_value', 'NONE');
#202 = APPROVAL_DATE_TIME ( #241, #160 ) ;
#203 = ADVANCED_FACE ( 'NONE', ( #243 ), #143, .F. ) ;
#204 = LINE ( 'NONE', #121, #1 ) ;
#205 = DIRECTION ( 'NONE',  ( 4.518694760382574489E-17, 4.438926453054888930E-17, -1.000000000000000000 ) ) ;
#206 = CC_DESIGN_PERSON_AND_ORGANIZATION_ASSIGNMENT ( #83, #46, ( #129 ) ) ;
#207 = DIRECTION ( 'NONE',  ( -1.000000000000000000, 4.440892098500599045E-16, -4.518694760382572640E-17 ) ) ;
#208 = ORIENTED_EDGE ( 'NONE', *, *, #148, .F. ) ;
#209 = EDGE_CURVE ( 'NONE', #84, #244, #173, .T. ) ;
#210 = CARTESIAN_POINT ( 'NONE',  ( -1.999999999999988010, 2.000000000000001776, 4.000000000000000000 ) ) ;
#211 = ORIENTED_EDGE ( 'NONE', *, *, #95, .T. ) ;
#212 = CARTESIAN_POINT ( 'NONE',  ( -4.000000000000001776, 1.810042990253920104E-15, 3.999999999999996447 ) ) ;
#213 = APPLICATION_CONTEXT ( 'configuration controlled 3d designs of mechanical parts and assemblies' ) ;
#214 = FACE_OUTER_BOUND ( 'NONE', #232, .T. ) ;
#215 = ORIENTED_EDGE ( 'NONE', *, *, #209, .F. ) ;
#216 = MECHANICAL_CONTEXT ( 'NONE', #88, 'mechanical' ) ;
#217 = AXIS2_PLACEMENT_3D ( 'NONE', #122, #169, #85 ) ;
#218 =( LENGTH_UNIT ( ) NAMED_UNIT ( * ) SI_UNIT ( .MILLI., .METRE. ) );
#219 = DIRECTION ( 'NONE',  ( 1.000000000000000000, 0.0000000000000000000, 0.0000000000000000000 ) ) ;
#220 = LOCAL_TIME ( 16, 17, 7.000000000000000000, #137 ) ;
#221 = VECTOR ( 'NONE', #248, 1000.000000000000000 ) ;
#222 = ADVANCED_FACE ( 'NONE', ( #42 ), #34, .T. ) ;
#223 = PERSON_AND_ORGANIZATION ( #234, #14 ) ;
#224 = APPROVAL_PERSON_ORGANIZATION ( #6, #265, #237 ) ;
#225 = APPROVAL ( #150, 'UNSPECIFIED' ) ;
#226 = ORIENTED_EDGE ( 'NONE', *, *, #174, .T. ) ;
#227 = APPROVAL_DATE_TIME ( #140, #225 ) ;
#228 = AXIS2_PLACEMENT_3D ( 'NONE', #106, #188, #254 ) ;
#229 = COORDINATED_UNIVERSAL_TIME_OFFSET ( 1, 0, .AHEAD. ) ;
#230 = LOCAL_TIME ( 16, 17, 7.000000000000000000, #76 ) ;
#231 = CARTESIAN_POINT ( 'NONE',  ( -1.999999999999988010, -2.000000000000000000, 4.000000000000003553 ) ) ;
#232 = EDGE_LOOP ( 'NONE', ( #54, #19, #215, #7, #120 ) ) ;
#233 = CARTESIAN_POINT ( 'NONE',  ( -1.999999999999988010, 2.000000000000001776, 4.000000000000000000 ) ) ;
#234 = PERSON ( 'UNSPECIFIED', 'UNSPECIFIED', 'UNSPECIFIED', ('UNSPECIFIED'), ('UNSPECIFIED'), ('UNSPECIFIED') ) ;
#235 = LINE ( 'NONE', #210, #183 ) ;
#236 = LINE ( 'NONE', #231, #101 ) ;
#237 = APPROVAL_ROLE ( '' ) ;
#238 = PRODUCT ( 'M134_9435-009', 'M134_9435-009', '', ( #216 ) ) ;
#239 = DATE_TIME_ROLE ( 'classification_date' ) ;
#240 = CC_DESIGN_PERSON_AND_ORGANIZATION_ASSIGNMENT ( #187, #110, ( #266 ) ) ;
#241 = DATE_AND_TIME ( #263, #220 ) ;
#242 = CARTESIAN_POINT ( 'NONE',  ( 2.000000000000001776, 2.000000000000000444, -1.734723475976807094E-15 ) ) ;
#243 = FACE_OUTER_BOUND ( 'NONE', #274, .T. ) ;
#244 = VERTEX_POINT ( 'NONE', #242 ) ;
#245 = CIRCLE ( 'NONE', #217, 2.000000000000000000 ) ;
#246 = AXIS2_PLACEMENT_3D ( 'NONE', #167, #40, #153 ) ;
#247 = CC_DESIGN_APPROVAL ( #160, ( #273 ) ) ;
#248 = DIRECTION ( 'NONE',  ( -4.518694760382572640E-17, 4.438926453054892628E-17, -1.000000000000000000 ) ) ;
#249 = CIRCLE ( 'NONE', #8, 2.000000000000000000 ) ;
#250 = ORIENTED_EDGE ( 'NONE', *, *, #259, .T. ) ;
#251 = DIRECTION ( 'NONE',  ( 4.518694760382574489E-17, 4.438926453054888930E-17, -1.000000000000000000 ) ) ;
#252 = CARTESIAN_POINT ( 'NONE',  ( -2.000000000000001776, 8.330860414927028365E-16, 3.999999999999996447 ) ) ;
#253 = ORIENTED_EDGE ( 'NONE', *, *, #12, .T. ) ;
#254 = DIRECTION ( 'NONE',  ( -1.000000000000000000, 4.440892098500599538E-16, 0.0000000000000000000 ) ) ;
#255 = PLANE ( 'NONE',  #190 ) ;
#256 = CC_DESIGN_APPROVAL ( #225, ( #129 ) ) ;
#257 = CARTESIAN_POINT ( 'NONE',  ( 2.000000000000001776, -2.000000000000001776, 4.000000000000003553 ) ) ;
#258 = APPLICATION_PROTOCOL_DEFINITION ( 'international standard', 'config_control_design', 1994, #88 ) ;
#259 = EDGE_CURVE ( 'NONE', #195, #48, #249, .T. ) ;
#260 = DIRECTION ( 'NONE',  ( -1.000000000000000000, 4.440892098500599538E-16, 0.0000000000000000000 ) ) ;
#261 = VECTOR ( 'NONE', #125, 1000.000000000000000 ) ;
#262 = APPROVAL_STATUS ( 'not_yet_approved' ) ;
#263 = CALENDAR_DATE ( 2020, 27, 5 ) ;
#264 = EDGE_LOOP ( 'NONE', ( #72, #90, #77, #114 ) ) ;
#265 = APPROVAL ( #87, 'UNSPECIFIED' ) ;
#266 = PRODUCT_DEFINITION_FORMATION_WITH_SPECIFIED_SOURCE ( 'ANY', '', #238, .NOT_KNOWN. ) ;
#267 = LINE ( 'NONE', #149, #60 ) ;
#268 = CARTESIAN_POINT ( 'NONE',  ( -1.999999999999988010, 2.000000000000002220, -1.734723475976807094E-15 ) ) ;
#269 = CALENDAR_DATE ( 2020, 27, 5 ) ;
#270 = AXIS2_PLACEMENT_3D ( 'NONE', #100, #164, #118 ) ;
#271 = FACE_OUTER_BOUND ( 'NONE', #38, .T. ) ;
#272 = AXIS2_PLACEMENT_3D ( 'NONE', #28, #89, #219 ) ;
#273 = SECURITY_CLASSIFICATION ( '', '', #4 ) ;
#274 = EDGE_LOOP ( 'NONE', ( #180, #208, #73, #117 ) ) ;
#275 = DIRECTION ( 'NONE',  ( 1.000000000000000000, -3.356689926015094611E-16, 4.518694760382571408E-17 ) ) ;
#276 = EDGE_CURVE ( 'NONE', #138, #11, #194, .T. ) ;
ENDSEC;
END-ISO-10303-21;
