ISO-10303-21;
HEADER;
FILE_DESCRIPTION (( 'STEP AP203' ),
    '1' );
FILE_NAME ('M020_9435-001.STEP',
    '2018-04-05T15:46:23',
    ( '' ),
    ( '' ),
    'SwSTEP 2.0',
    'SolidWorks 2016',
    '' );
FILE_SCHEMA (( 'CONFIG_CONTROL_DESIGN' ));
ENDSEC;

DATA;
#1 = DIRECTION ( 'NONE',  ( -1.000000000000000000, -1.239088197126290600E-016, -0.0000000000000000000 ) ) ;
#2 = EDGE_CURVE ( 'NONE', #88, #261, #220, .T. ) ;
#3 = CARTESIAN_POINT ( 'NONE',  ( 10.50000000000000000, 2.449293598294710900E-016, 4.000000000000000000 ) ) ;
#4 = LOCAL_TIME ( 17, 46, 23.00000000000000000, #35 ) ;
#5 = AXIS2_PLACEMENT_3D ( 'NONE', #100, #113, #230 ) ;
#6 = PERSON_AND_ORGANIZATION_ROLE ( 'creator' ) ;
#7 = ORIENTED_EDGE ( 'NONE', *, *, #38, .T. ) ;
#8 = PRODUCT_DEFINITION_FORMATION_WITH_SPECIFIED_SOURCE ( 'ANY', '', #78, .NOT_KNOWN. ) ;
#9 = DIRECTION ( 'NONE',  ( 0.0000000000000000000, 0.0000000000000000000, 1.000000000000000000 ) ) ;
#10 = EDGE_CURVE ( 'NONE', #31, #15, #46, .T. ) ;
#11 = LINE ( 'NONE', #12, #86 ) ;
#12 = CARTESIAN_POINT ( 'NONE',  ( -10.50000000000000000, 2.000000000000000400, 4.000000000000000000 ) ) ;
#13 = CALENDAR_DATE ( 2018, 5, 4 ) ;
#14 = DIRECTION ( 'NONE',  ( 0.0000000000000000000, 0.0000000000000000000, 1.000000000000000000 ) ) ;
#15 = VERTEX_POINT ( 'NONE', #138 ) ;
#16 = ORIENTED_EDGE ( 'NONE', *, *, #226, .T. ) ;
#17 = CC_DESIGN_DATE_AND_TIME_ASSIGNMENT ( #40, #19, ( #121 ) ) ;
#18 = ORIENTED_EDGE ( 'NONE', *, *, #188, .F. ) ;
#19 = DATE_TIME_ROLE ( 'classification_date' ) ;
#20 = DIRECTION ( 'NONE',  ( 1.000000000000000000, 1.239088197126290600E-016, 0.0000000000000000000 ) ) ;
#21 = EDGE_CURVE ( 'NONE', #211, #33, #109, .T. ) ;
#22 = LINE ( 'NONE', #192, #134 ) ;
#23 =( NAMED_UNIT ( * ) PLANE_ANGLE_UNIT ( ) SI_UNIT ( $, .RADIAN. ) );
#24 = PERSON_AND_ORGANIZATION ( #200, #208 ) ;
#25 = DIRECTION ( 'NONE',  ( -1.000000000000000000, 0.0000000000000000000, 0.0000000000000000000 ) ) ;
#26 = DESIGN_CONTEXT ( 'detailed design', #187, 'design' ) ;
#27 = CARTESIAN_POINT ( 'NONE',  ( -10.50000000000000000, 2.000000000000000400, 4.000000000000000000 ) ) ;
#28 = AXIS2_PLACEMENT_3D ( 'NONE', #251, #193, #174 ) ;
#29 = PLANE ( 'NONE',  #32 ) ;
#30 = ORIENTED_EDGE ( 'NONE', *, *, #10, .F. ) ;
#31 = VERTEX_POINT ( 'NONE', #224 ) ;
#32 = AXIS2_PLACEMENT_3D ( 'NONE', #223, #276, #173 ) ;
#33 = VERTEX_POINT ( 'NONE', #156 ) ;
#34 = EDGE_LOOP ( 'NONE', ( #42, #235, #30, #157 ) ) ;
#35 = COORDINATED_UNIVERSAL_TIME_OFFSET ( 1, 0, .AHEAD. ) ;
#36 = CYLINDRICAL_SURFACE ( 'NONE', #52, 2.000000000000000000 ) ;
#37 = DIRECTION ( 'NONE',  ( -1.239088197126290800E-016, 1.000000000000000000, 0.0000000000000000000 ) ) ;
#38 = EDGE_CURVE ( 'NONE', #211, #31, #216, .T. ) ;
#39 = AXIS2_PLACEMENT_3D ( 'NONE', #91, #41, #221 ) ;
#40 = DATE_AND_TIME ( #64, #4 ) ;
#41 = DIRECTION ( 'NONE',  ( 0.0000000000000000000, 0.0000000000000000000, 1.000000000000000000 ) ) ;
#42 = ORIENTED_EDGE ( 'NONE', *, *, #59, .T. ) ;
#43 = DIRECTION ( 'NONE',  ( -1.000000000000000000, 0.0000000000000000000, 0.0000000000000000000 ) ) ;
#44 = CARTESIAN_POINT ( 'NONE',  ( -10.50000000000000000, 2.449293598294710900E-016, 0.0000000000000000000 ) ) ;
#45 = CC_DESIGN_PERSON_AND_ORGANIZATION_ASSIGNMENT ( #98, #178, ( #121 ) ) ;
#46 = CIRCLE ( 'NONE', #62, 2.000000000000000000 ) ;
#47 = LINE ( 'NONE', #238, #130 ) ;
#48 = APPROVAL_ROLE ( '' ) ;
#49 = DIRECTION ( 'NONE',  ( 1.000000000000000000, 0.0000000000000000000, 0.0000000000000000000 ) ) ;
#50 = DIRECTION ( 'NONE',  ( 1.000000000000000000, 0.0000000000000000000, 0.0000000000000000000 ) ) ;
#51 = CIRCLE ( 'NONE', #39, 2.000000000000000000 ) ;
#52 = AXIS2_PLACEMENT_3D ( 'NONE', #184, #275, #25 ) ;
#53 = DIRECTION ( 'NONE',  ( -1.000000000000000000, -1.239088197126290600E-016, -0.0000000000000000000 ) ) ;
#54 = EDGE_LOOP ( 'NONE', ( #110, #257, #70, #176 ) ) ;
#55 = PLANE ( 'NONE',  #61 ) ;
#56 = EDGE_LOOP ( 'NONE', ( #18, #215, #16, #164 ) ) ;
#57 = ORIENTED_EDGE ( 'NONE', *, *, #2, .F. ) ;
#58 = VERTEX_POINT ( 'NONE', #233 ) ;
#59 = EDGE_CURVE ( 'NONE', #258, #88, #90, .T. ) ;
#60 = VECTOR ( 'NONE', #147, 1000.000000000000000 ) ;
#61 = AXIS2_PLACEMENT_3D ( 'NONE', #27, #102, #165 ) ;
#62 = AXIS2_PLACEMENT_3D ( 'NONE', #250, #14, #160 ) ;
#63 = PERSON_AND_ORGANIZATION ( #200, #208 ) ;
#64 = CALENDAR_DATE ( 2018, 5, 4 ) ;
#65 = EDGE_CURVE ( 'NONE', #261, #243, #172, .T. ) ;
#66 = MECHANICAL_CONTEXT ( 'NONE', #131, 'mechanical' ) ;
#67 = DIRECTION ( 'NONE',  ( -0.0000000000000000000, -0.0000000000000000000, -1.000000000000000000 ) ) ;
#68 = CC_DESIGN_PERSON_AND_ORGANIZATION_ASSIGNMENT ( #24, #6, ( #136 ) ) ;
#69 = FACE_OUTER_BOUND ( 'NONE', #245, .T. ) ;
#70 = ORIENTED_EDGE ( 'NONE', *, *, #38, .F. ) ;
#71 = CARTESIAN_POINT ( 'NONE',  ( 10.50000000000000000, 2.449293598294710900E-016, 0.0000000000000000000 ) ) ;
#72 = ADVANCED_FACE ( 'NONE', ( #108 ), #36, .T. ) ;
#73 = CARTESIAN_POINT ( 'NONE',  ( -12.50000000000000000, 2.449293598294710900E-016, 4.000000000000000000 ) ) ;
#74 = ORIENTED_EDGE ( 'NONE', *, *, #21, .F. ) ;
#75 = CIRCLE ( 'NONE', #28, 2.000000000000000000 ) ;
#76 = ADVANCED_FACE ( 'NONE', ( #128 ), #152, .T. ) ;
#77 = APPROVAL_DATE_TIME ( #202, #95 ) ;
#78 = PRODUCT ( 'M020_9435-001', 'M020_9435-001', '', ( #66 ) ) ;
#79 = PERSON_AND_ORGANIZATION_ROLE ( 'creator' ) ;
#80 = VECTOR ( 'NONE', #175, 1000.000000000000000 ) ;
#81 = PRODUCT_RELATED_PRODUCT_CATEGORY ( 'detail', '', ( #78 ) ) ;
#82 = LOCAL_TIME ( 17, 46, 23.00000000000000000, #149 ) ;
#83 = ADVANCED_FACE ( 'NONE', ( #203 ), #137, .T. ) ;
#84 = CALENDAR_DATE ( 2018, 5, 4 ) ;
#85 = DATE_AND_TIME ( #13, #82 ) ;
#86 = VECTOR ( 'NONE', #1, 1000.000000000000000 ) ;
#87 = CC_DESIGN_SECURITY_CLASSIFICATION ( #121, ( #8 ) ) ;
#88 = VERTEX_POINT ( 'NONE', #185 ) ;
#89 = SHAPE_DEFINITION_REPRESENTATION ( #205, #127 ) ;
#90 = CIRCLE ( 'NONE', #256, 2.000000000000000000 ) ;
#91 = CARTESIAN_POINT ( 'NONE',  ( -10.50000000000000000, 2.449293598294710900E-016, 4.000000000000000000 ) ) ;
#92 = DIRECTION ( 'NONE',  ( -1.000000000000000000, -1.239088197126290800E-016, 0.0000000000000000000 ) ) ;
#93 = CC_DESIGN_PERSON_AND_ORGANIZATION_ASSIGNMENT ( #237, #218, ( #78 ) ) ;
#94 = APPROVAL_STATUS ( 'not_yet_approved' ) ;
#95 = APPROVAL ( #94, 'UNSPECIFIED' ) ;
#96 = VERTEX_POINT ( 'NONE', #73 ) ;
#97 = DATE_AND_TIME ( #84, #228 ) ;
#98 = PERSON_AND_ORGANIZATION ( #200, #208 ) ;
#99 = DIRECTION ( 'NONE',  ( -0.0000000000000000000, -0.0000000000000000000, -1.000000000000000000 ) ) ;
#100 = CARTESIAN_POINT ( 'NONE',  ( -10.50000000000000000, 2.449293598294710900E-016, 0.0000000000000000000 ) ) ;
#101 = ORIENTED_EDGE ( 'NONE', *, *, #65, .F. ) ;
#102 = DIRECTION ( 'NONE',  ( 1.239088197126290800E-016, -1.000000000000000000, 0.0000000000000000000 ) ) ;
#103 = PLANE ( 'NONE',  #106 ) ;
#104 = EDGE_CURVE ( 'NONE', #15, #58, #11, .T. ) ;
#105 = EDGE_LOOP ( 'NONE', ( #247, #186, #7, #225, #227 ) ) ;
#106 = AXIS2_PLACEMENT_3D ( 'NONE', #194, #37, #92 ) ;
#107 = SECURITY_CLASSIFICATION_LEVEL ( 'unclassified' ) ;
#108 = FACE_OUTER_BOUND ( 'NONE', #195, .T. ) ;
#109 = LINE ( 'NONE', #118, #268 ) ;
#110 = ORIENTED_EDGE ( 'NONE', *, *, #217, .T. ) ;
#111 = VECTOR ( 'NONE', #53, 1000.000000000000000 ) ;
#112 = DIRECTION ( 'NONE',  ( -0.0000000000000000000, -0.0000000000000000000, -1.000000000000000000 ) ) ;
#113 = DIRECTION ( 'NONE',  ( 0.0000000000000000000, 0.0000000000000000000, 1.000000000000000000 ) ) ;
#114 = AXIS2_PLACEMENT_3D ( 'NONE', #181, #271, #43 ) ;
#115 = APPROVAL ( #212, 'UNSPECIFIED' ) ;
#116 = CYLINDRICAL_SURFACE ( 'NONE', #207, 2.000000000000000000 ) ;
#117 = EDGE_CURVE ( 'NONE', #96, #211, #51, .T. ) ;
#118 = CARTESIAN_POINT ( 'NONE',  ( -10.50000000000000000, -1.999999999999999600, 4.000000000000000000 ) ) ;
#119 =( LENGTH_UNIT ( ) NAMED_UNIT ( * ) SI_UNIT ( .MILLI., .METRE. ) );
#120 = CARTESIAN_POINT ( 'NONE',  ( -12.50000000000000000, 2.449293598294710900E-016, 0.0000000000000000000 ) ) ;
#121 = SECURITY_CLASSIFICATION ( '', '', #107 ) ;
#122 = APPROVAL_STATUS ( 'not_yet_approved' ) ;
#123 = ADVANCED_FACE ( 'NONE', ( #161 ), #29, .F. ) ;
#124 = CARTESIAN_POINT ( 'NONE',  ( -10.50000000000000000, -1.999999999999999600, 4.000000000000000000 ) ) ;
#125 = APPROVAL ( #122, 'UNSPECIFIED' ) ;
#126 = PERSON_AND_ORGANIZATION ( #200, #208 ) ;
#127 = ADVANCED_BREP_SHAPE_REPRESENTATION ( 'M020_9435-001', ( #265, #274 ), #158 ) ;
#128 = FACE_OUTER_BOUND ( 'NONE', #56, .T. ) ;
#129 = APPROVAL_DATE_TIME ( #204, #115 ) ;
#130 = VECTOR ( 'NONE', #112, 1000.000000000000000 ) ;
#131 = APPLICATION_CONTEXT ( 'configuration controlled 3d designs of mechanical parts and assemblies' ) ;
#132 = CARTESIAN_POINT ( 'NONE',  ( -10.50000000000000000, 2.000000000000000400, 0.0000000000000000000 ) ) ;
#133 = CARTESIAN_POINT ( 'NONE',  ( -10.50000000000000000, 2.449293598294710900E-016, 4.000000000000000000 ) ) ;
#134 = VECTOR ( 'NONE', #67, 1000.000000000000000 ) ;
#135 = DIRECTION ( 'NONE',  ( -0.0000000000000000000, 0.0000000000000000000, -1.000000000000000000 ) ) ;
#136 = PRODUCT_DEFINITION ( 'UNKNOWN', '', #8, #26 ) ;
#137 = PLANE ( 'NONE',  #234 ) ;
#138 = CARTESIAN_POINT ( 'NONE',  ( 10.50000000000000400, 2.000000000000000400, 4.000000000000000000 ) ) ;
#139 = APPLICATION_PROTOCOL_DEFINITION ( 'international standard', 'config_control_design', 1994, #131 ) ;
#140 = DIRECTION ( 'NONE',  ( -0.0000000000000000000, -0.0000000000000000000, -1.000000000000000000 ) ) ;
#141 = LINE ( 'NONE', #179, #236 ) ;
#142 = APPROVAL_PERSON_ORGANIZATION ( #126, #115, #48 ) ;
#143 = CC_DESIGN_APPROVAL ( #115, ( #121 ) ) ;
#144 = COORDINATED_UNIVERSAL_TIME_OFFSET ( 1, 0, .AHEAD. ) ;
#145 = ADVANCED_FACE ( 'NONE', ( #242 ), #116, .T. ) ;
#146 = CARTESIAN_POINT ( 'NONE',  ( -10.50000000000000000, -1.999999999999999600, 4.000000000000000000 ) ) ;
#147 = DIRECTION ( 'NONE',  ( 1.000000000000000000, 1.239088197126290600E-016, 0.0000000000000000000 ) ) ;
#148 = COORDINATED_UNIVERSAL_TIME_OFFSET ( 1, 0, .AHEAD. ) ;
#149 = COORDINATED_UNIVERSAL_TIME_OFFSET ( 1, 0, .AHEAD. ) ;
#150 = ORIENTED_EDGE ( 'NONE', *, *, #59, .F. ) ;
#151 = APPLICATION_PROTOCOL_DEFINITION ( 'international standard', 'config_control_design', 1994, #187 ) ;
#152 = CYLINDRICAL_SURFACE ( 'NONE', #270, 2.000000000000000000 ) ;
#153 = LINE ( 'NONE', #182, #162 ) ;
#154 = ORIENTED_EDGE ( 'NONE', *, *, #117, .F. ) ;
#155 = PERSON_AND_ORGANIZATION ( #200, #208 ) ;
#156 = CARTESIAN_POINT ( 'NONE',  ( -10.50000000000000000, -1.999999999999999600, 0.0000000000000000000 ) ) ;
#157 = ORIENTED_EDGE ( 'NONE', *, *, #266, .T. ) ;
#158 =( GEOMETRIC_REPRESENTATION_CONTEXT ( 3 ) GLOBAL_UNCERTAINTY_ASSIGNED_CONTEXT ( ( #232 ) ) GLOBAL_UNIT_ASSIGNED_CONTEXT ( ( #119, #23, #272 ) ) REPRESENTATION_CONTEXT ( 'NONE', 'WORKASPACE' ) );
#159 = DIRECTION ( 'NONE',  ( -0.0000000000000000000, -0.0000000000000000000, -1.000000000000000000 ) ) ;
#160 = DIRECTION ( 'NONE',  ( 1.000000000000000000, 0.0000000000000000000, 0.0000000000000000000 ) ) ;
#161 = FACE_OUTER_BOUND ( 'NONE', #105, .T. ) ;
#162 = VECTOR ( 'NONE', #140, 1000.000000000000000 ) ;
#163 = ORIENTED_EDGE ( 'NONE', *, *, #2, .T. ) ;
#164 = ORIENTED_EDGE ( 'NONE', *, *, #65, .T. ) ;
#165 = DIRECTION ( 'NONE',  ( 1.000000000000000000, 1.239088197126290800E-016, 0.0000000000000000000 ) ) ;
#166 = ORIENTED_EDGE ( 'NONE', *, *, #188, .T. ) ;
#167 = CC_DESIGN_DATE_AND_TIME_ASSIGNMENT ( #97, #209, ( #136 ) ) ;
#168 = CC_DESIGN_APPROVAL ( #95, ( #136 ) ) ;
#169 = APPROVAL_ROLE ( '' ) ;
#170 = EDGE_LOOP ( 'NONE', ( #101, #57, #150, #191, #244 ) ) ;
#171 = ADVANCED_FACE ( 'NONE', ( #69 ), #55, .F. ) ;
#172 = CIRCLE ( 'NONE', #5, 2.000000000000000000 ) ;
#173 = DIRECTION ( 'NONE',  ( -1.000000000000000000, 0.0000000000000000000, 0.0000000000000000000 ) ) ;
#174 = DIRECTION ( 'NONE',  ( -1.000000000000000000, 0.0000000000000000000, 0.0000000000000000000 ) ) ;
#175 = DIRECTION ( 'NONE',  ( -0.0000000000000000000, -0.0000000000000000000, -1.000000000000000000 ) ) ;
#176 = ORIENTED_EDGE ( 'NONE', *, *, #21, .T. ) ;
#177 = DIRECTION ( 'NONE',  ( -1.000000000000000000, 0.0000000000000000000, 0.0000000000000000000 ) ) ;
#178 = PERSON_AND_ORGANIZATION_ROLE ( 'classification_officer' ) ;
#179 = CARTESIAN_POINT ( 'NONE',  ( -10.50000000000000000, -1.999999999999999600, 0.0000000000000000000 ) ) ;
#180 = LOCAL_TIME ( 17, 46, 23.00000000000000000, #148 ) ;
#181 = CARTESIAN_POINT ( 'NONE',  ( -10.50000000000000000, 2.449293598294710900E-016, 4.000000000000000000 ) ) ;
#182 = CARTESIAN_POINT ( 'NONE',  ( -12.50000000000000000, 2.449293598294710900E-016, 4.000000000000000000 ) ) ;
#183 = CC_DESIGN_APPROVAL ( #125, ( #8 ) ) ;
#184 = CARTESIAN_POINT ( 'NONE',  ( -10.50000000000000000, 2.449293598294710900E-016, 4.000000000000000000 ) ) ;
#185 = CARTESIAN_POINT ( 'NONE',  ( 10.50000000000000400, 2.000000000000000400, 0.0000000000000000000 ) ) ;
#186 = ORIENTED_EDGE ( 'NONE', *, *, #117, .T. ) ;
#187 = APPLICATION_CONTEXT ( 'configuration controlled 3d designs of mechanical parts and assemblies' ) ;
#188 = EDGE_CURVE ( 'NONE', #96, #243, #153, .T. ) ;
#189 = ORIENTED_EDGE ( 'NONE', *, *, #104, .F. ) ;
#190 = APPROVAL_DATE_TIME ( #85, #125 ) ;
#191 = ORIENTED_EDGE ( 'NONE', *, *, #217, .F. ) ;
#192 = CARTESIAN_POINT ( 'NONE',  ( 10.50000000000000400, 2.000000000000000400, 4.000000000000000000 ) ) ;
#193 = DIRECTION ( 'NONE',  ( 0.0000000000000000000, 0.0000000000000000000, 1.000000000000000000 ) ) ;
#194 = CARTESIAN_POINT ( 'NONE',  ( -10.50000000000000000, -1.999999999999999600, 4.000000000000000000 ) ) ;
#195 = EDGE_LOOP ( 'NONE', ( #154, #166, #213, #74 ) ) ;
#196 = DIRECTION ( 'NONE',  ( -0.0000000000000000000, -0.0000000000000000000, -1.000000000000000000 ) ) ;
#197 = CARTESIAN_POINT ( 'NONE',  ( -10.50000000000000000, 2.000000000000000400, 0.0000000000000000000 ) ) ;
#198 = ORIENTED_EDGE ( 'NONE', *, *, #226, .F. ) ;
#199 = LOCAL_TIME ( 17, 46, 23.00000000000000000, #262 ) ;
#200 = PERSON ( 'UNSPECIFIED', 'UNSPECIFIED', 'UNSPECIFIED', ('UNSPECIFIED'), ('UNSPECIFIED'), ('UNSPECIFIED') ) ;
#201 = PERSON_AND_ORGANIZATION_ROLE ( 'design_supplier' ) ;
#202 = DATE_AND_TIME ( #252, #199 ) ;
#203 = FACE_OUTER_BOUND ( 'NONE', #170, .T. ) ;
#204 = DATE_AND_TIME ( #206, #180 ) ;
#205 = PRODUCT_DEFINITION_SHAPE ( 'NONE', 'NONE',  #136 ) ;
#206 = CALENDAR_DATE ( 2018, 5, 4 ) ;
#207 = AXIS2_PLACEMENT_3D ( 'NONE', #3, #99, #229 ) ;
#208 = ORGANIZATION ( 'UNSPECIFIED', 'UNSPECIFIED', '' ) ;
#209 = DATE_TIME_ROLE ( 'creation_date' ) ;
#210 = APPROVAL_PERSON_ORGANIZATION ( #155, #125, #169 ) ;
#211 = VERTEX_POINT ( 'NONE', #146 ) ;
#212 = APPROVAL_STATUS ( 'not_yet_approved' ) ;
#213 = ORIENTED_EDGE ( 'NONE', *, *, #214, .T. ) ;
#214 = EDGE_CURVE ( 'NONE', #243, #33, #75, .T. ) ;
#215 = ORIENTED_EDGE ( 'NONE', *, *, #241, .F. ) ;
#216 = LINE ( 'NONE', #124, #60 ) ;
#217 = EDGE_CURVE ( 'NONE', #33, #258, #141, .T. ) ;
#218 = PERSON_AND_ORGANIZATION_ROLE ( 'design_owner' ) ;
#219 = CARTESIAN_POINT ( 'NONE',  ( 0.0000000000000000000, 0.0000000000000000000, 0.0000000000000000000 ) ) ;
#220 = LINE ( 'NONE', #197, #111 ) ;
#221 = DIRECTION ( 'NONE',  ( -1.000000000000000000, 0.0000000000000000000, 0.0000000000000000000 ) ) ;
#222 = PERSON_AND_ORGANIZATION ( #200, #208 ) ;
#223 = CARTESIAN_POINT ( 'NONE',  ( -10.50000000000000000, 2.449293598294710900E-016, 4.000000000000000000 ) ) ;
#224 = CARTESIAN_POINT ( 'NONE',  ( 10.50000000000000500, -1.999999999999997100, 4.000000000000000000 ) ) ;
#225 = ORIENTED_EDGE ( 'NONE', *, *, #10, .T. ) ;
#226 = EDGE_CURVE ( 'NONE', #58, #261, #264, .T. ) ;
#227 = ORIENTED_EDGE ( 'NONE', *, *, #104, .T. ) ;
#228 = LOCAL_TIME ( 17, 46, 23.00000000000000000, #144 ) ;
#229 = DIRECTION ( 'NONE',  ( -1.000000000000000000, 0.0000000000000000000, 0.0000000000000000000 ) ) ;
#230 = DIRECTION ( 'NONE',  ( -1.000000000000000000, 0.0000000000000000000, 0.0000000000000000000 ) ) ;
#231 = PERSON_AND_ORGANIZATION ( #200, #208 ) ;
#232 = UNCERTAINTY_MEASURE_WITH_UNIT (LENGTH_MEASURE( 1.000000000000000100E-005 ), #119, 'distance_accuracy_value', 'NONE');
#233 = CARTESIAN_POINT ( 'NONE',  ( -10.50000000000000000, 2.000000000000000400, 4.000000000000000000 ) ) ;
#234 = AXIS2_PLACEMENT_3D ( 'NONE', #44, #135, #177 ) ;
#235 = ORIENTED_EDGE ( 'NONE', *, *, #249, .F. ) ;
#236 = VECTOR ( 'NONE', #20, 1000.000000000000000 ) ;
#237 = PERSON_AND_ORGANIZATION ( #200, #208 ) ;
#238 = CARTESIAN_POINT ( 'NONE',  ( 10.50000000000000500, -1.999999999999997100, 4.000000000000000000 ) ) ;
#239 = CC_DESIGN_PERSON_AND_ORGANIZATION_ASSIGNMENT ( #231, #201, ( #8 ) ) ;
#240 = CIRCLE ( 'NONE', #114, 2.000000000000000000 ) ;
#241 = EDGE_CURVE ( 'NONE', #58, #96, #240, .T. ) ;
#242 = FACE_OUTER_BOUND ( 'NONE', #34, .T. ) ;
#243 = VERTEX_POINT ( 'NONE', #120 ) ;
#244 = ORIENTED_EDGE ( 'NONE', *, *, #214, .F. ) ;
#245 = EDGE_LOOP ( 'NONE', ( #163, #198, #189, #269 ) ) ;
#246 = DIRECTION ( 'NONE',  ( 0.0000000000000000000, 0.0000000000000000000, 1.000000000000000000 ) ) ;
#247 = ORIENTED_EDGE ( 'NONE', *, *, #241, .T. ) ;
#248 = FACE_OUTER_BOUND ( 'NONE', #54, .T. ) ;
#249 = EDGE_CURVE ( 'NONE', #15, #88, #22, .T. ) ;
#250 = CARTESIAN_POINT ( 'NONE',  ( 10.50000000000000000, 2.449293598294710900E-016, 4.000000000000000000 ) ) ;
#251 = CARTESIAN_POINT ( 'NONE',  ( -10.50000000000000000, 2.449293598294710900E-016, 0.0000000000000000000 ) ) ;
#252 = CALENDAR_DATE ( 2018, 5, 4 ) ;
#253 = CARTESIAN_POINT ( 'NONE',  ( 10.50000000000000500, -1.999999999999997100, 0.0000000000000000000 ) ) ;
#254 = CC_DESIGN_PERSON_AND_ORGANIZATION_ASSIGNMENT ( #63, #79, ( #8 ) ) ;
#255 = CARTESIAN_POINT ( 'NONE',  ( -10.50000000000000000, 2.000000000000000400, 4.000000000000000000 ) ) ;
#256 = AXIS2_PLACEMENT_3D ( 'NONE', #71, #246, #50 ) ;
#257 = ORIENTED_EDGE ( 'NONE', *, *, #266, .F. ) ;
#258 = VERTEX_POINT ( 'NONE', #253 ) ;
#259 = DIRECTION ( 'NONE',  ( -1.000000000000000000, 0.0000000000000000000, 0.0000000000000000000 ) ) ;
#260 = CLOSED_SHELL ( 'NONE', ( #72, #76, #267, #145, #171, #123, #83 ) ) ;
#261 = VERTEX_POINT ( 'NONE', #132 ) ;
#262 = COORDINATED_UNIVERSAL_TIME_OFFSET ( 1, 0, .AHEAD. ) ;
#263 = APPROVAL_PERSON_ORGANIZATION ( #222, #95, #273 ) ;
#264 = LINE ( 'NONE', #255, #80 ) ;
#265 = MANIFOLD_SOLID_BREP ( 'Base-Extrusion', #260 ) ;
#266 = EDGE_CURVE ( 'NONE', #31, #258, #47, .T. ) ;
#267 = ADVANCED_FACE ( 'NONE', ( #248 ), #103, .F. ) ;
#268 = VECTOR ( 'NONE', #159, 1000.000000000000000 ) ;
#269 = ORIENTED_EDGE ( 'NONE', *, *, #249, .T. ) ;
#270 = AXIS2_PLACEMENT_3D ( 'NONE', #133, #196, #259 ) ;
#271 = DIRECTION ( 'NONE',  ( 0.0000000000000000000, 0.0000000000000000000, 1.000000000000000000 ) ) ;
#272 =( NAMED_UNIT ( * ) SI_UNIT ( $, .STERADIAN. ) SOLID_ANGLE_UNIT ( ) );
#273 = APPROVAL_ROLE ( '' ) ;
#274 = AXIS2_PLACEMENT_3D ( 'NONE', #219, #9, #49 ) ;
#275 = DIRECTION ( 'NONE',  ( -0.0000000000000000000, -0.0000000000000000000, -1.000000000000000000 ) ) ;
#276 = DIRECTION ( 'NONE',  ( -0.0000000000000000000, 0.0000000000000000000, -1.000000000000000000 ) ) ;
ENDSEC;
END-ISO-10303-21;
